  0
SECTION
  2
HEADER
  9
$ACADVER
  1
AC1015
  9
$ACADMAINTVER
 70
     6
  9
$DWGCODEPAGE
  3
ANSI_1252
  9
$INSBASE
 10
0.0
 20
0.0
 30
0.0
  9
$EXTMIN
 10
-2.45
 20
-2.5
 30
0.0
  9
$EXTMAX
 10
2.45
 20
2.5
 30
0.0
  9
$LIMMIN
 10
0.0
 20
0.0
  9
$LIMMAX
 10
12.0
 20
9.0
  9
$ORTHOMODE
 70
     0
  9
$REGENMODE
 70
     1
  9
$FILLMODE
 70
     1
  9
$QTEXTMODE
 70
     0
  9
$MIRRTEXT
 70
     1
  9
$LTSCALE
 40
1.0
  9
$ATTMODE
 70
     1
  9
$TEXTSIZE
 40
0.1377952756
  9
$TRACEWID
 40
0.05
  9
$TEXTSTYLE
  7
Standard
  9
$CLAYER
  8
0
  9
$CELTYPE
  6
ByLayer
  9
$CECOLOR
 62
   256
  9
$CELTSCALE
 40
1.0
  9
$DISPSILH
 70
     0
  9
$DIMSCALE
 40
1.0
  9
$DIMASZ
 40
0.2362204724
  9
$DIMEXO
 40
0.0393700787
  9
$DIMDLI
 40
0.38
  9
$DIMRND
 40
0.0
  9
$DIMDLE
 40
0.0
  9
$DIMEXE
 40
0.0393700787
  9
$DIMTP
 40
0.0
  9
$DIMTM
 40
0.0
  9
$DIMTXT
 40
0.1377952756
  9
$DIMCEN
 40
0.09
  9
$DIMTSZ
 40
0.0
  9
$DIMTOL
 70
     0
  9
$DIMLIM
 70
     0
  9
$DIMTIH
 70
     1
  9
$DIMTOH
 70
     1
  9
$DIMSE1
 70
     0
  9
$DIMSE2
 70
     0
  9
$DIMTAD
 70
     1
  9
$DIMZIN
 70
     0
  9
$DIMBLK
  1

  9
$DIMASO
 70
     1
  9
$DIMSHO
 70
     1
  9
$DIMPOST
  1

  9
$DIMAPOST
  1

  9
$DIMALT
 70
     0
  9
$DIMALTD
 70
     2
  9
$DIMALTF
 40
25.4
  9
$DIMLFAC
 40
1.0
  9
$DIMTOFL
 70
     0
  9
$DIMTVP
 40
0.0
  9
$DIMTIX
 70
     0
  9
$DIMSOXD
 70
     0
  9
$DIMSAH
 70
     0
  9
$DIMBLK1
  1

  9
$DIMBLK2
  1

  9
$DIMSTYLE
  2
Standard
  9
$DIMCLRD
 70
     0
  9
$DIMCLRE
 70
     0
  9
$DIMCLRT
 70
     0
  9
$DIMTFAC
 40
1.0
  9
$DIMGAP
 40
0.06
  9
$DIMJUST
 70
     0
  9
$DIMSD1
 70
     0
  9
$DIMSD2
 70
     0
  9
$DIMTOLJ
 70
     1
  9
$DIMTZIN
 70
     0
  9
$DIMALTZ
 70
     0
  9
$DIMALTTZ
 70
     0
  9
$DIMUPT
 70
     0
  9
$DIMDEC
 70
     3
  9
$DIMTDEC
 70
     3
  9
$DIMALTU
 70
     2
  9
$DIMALTTD
 70
     2
  9
$DIMTXSTY
  7
Standard
  9
$DIMAUNIT
 70
     0
  9
$DIMADEC
 70
     2
  9
$DIMALTRND
 40
0.0
  9
$DIMAZIN
 70
     0
  9
$DIMDSEP
 70
    46
  9
$DIMATFIT
 70
     3
  9
$DIMFRAC
 70
     0
  9
$DIMLDRBLK
  1

  9
$DIMLUNIT
 70
     2
  9
$DIMLWD
 70
    -2
  9
$DIMLWE
 70
    -2
  9
$DIMTMOVE
 70
     0
  9
$LUNITS
 70
     2
  9
$LUPREC
 70
     2
  9
$SKETCHINC
 40
0.1
  9
$FILLETRAD
 40
0.5
  9
$AUNITS
 70
     0
  9
$AUPREC
 70
     2
  9
$MENU
  1
.
  9
$ELEVATION
 40
0.0
  9
$PELEVATION
 40
0.0
  9
$THICKNESS
 40
0.0
  9
$LIMCHECK
 70
     0
  9
$CHAMFERA
 40
0.0
  9
$CHAMFERB
 40
0.0
  9
$CHAMFERC
 40
0.0
  9
$CHAMFERD
 40
0.0
  9
$SKPOLY
 70
     0
  9
$TDCREATE
 40
2458226.554061991
  9
$TDUCREATE
 40
2458226.845728657
  9
$TDUPDATE
 40
2458226.554217129
  9
$TDUUPDATE
 40
2458226.845883796
  9
$TDINDWG
 40
0.0000000116
  9
$TDUSRTIMER
 40
0.0000000116
  9
$USRTIMER
 70
     1
  9
$ANGBASE
 50
0.0
  9
$ANGDIR
 70
     0
  9
$PDMODE
 70
     0
  9
$PDSIZE
 40
-1.0
  9
$PLINEWID
 40
0.0
  9
$SPLFRAME
 70
     0
  9
$SPLINETYPE
 70
     6
  9
$SPLINESEGS
 70
     8
  9
$HANDSEED
  5
26C
  9
$SURFTAB1
 70
     6
  9
$SURFTAB2
 70
     6
  9
$SURFTYPE
 70
     6
  9
$SURFU
 70
     6
  9
$SURFV
 70
     6
  9
$UCSBASE
  2

  9
$UCSNAME
  2

  9
$UCSORG
 10
0.0
 20
0.0
 30
0.0
  9
$UCSXDIR
 10
1.0
 20
0.0
 30
0.0
  9
$UCSYDIR
 10
0.0
 20
1.0
 30
0.0
  9
$UCSORTHOREF
  2

  9
$UCSORTHOVIEW
 70
     0
  9
$UCSORGTOP
 10
0.0
 20
0.0
 30
0.0
  9
$UCSORGBOTTOM
 10
0.0
 20
0.0
 30
0.0
  9
$UCSORGLEFT
 10
0.0
 20
0.0
 30
0.0
  9
$UCSORGRIGHT
 10
0.0
 20
0.0
 30
0.0
  9
$UCSORGFRONT
 10
0.0
 20
0.0
 30
0.0
  9
$UCSORGBACK
 10
0.0
 20
0.0
 30
0.0
  9
$PUCSBASE
  2

  9
$PUCSNAME
  2

  9
$PUCSORG
 10
0.0
 20
0.0
 30
0.0
  9
$PUCSXDIR
 10
1.0
 20
0.0
 30
0.0
  9
$PUCSYDIR
 10
0.0
 20
1.0
 30
0.0
  9
$PUCSORTHOREF
  2

  9
$PUCSORTHOVIEW
 70
     0
  9
$PUCSORGTOP
 10
0.0
 20
0.0
 30
0.0
  9
$PUCSORGBOTTOM
 10
0.0
 20
0.0
 30
0.0
  9
$PUCSORGLEFT
 10
0.0
 20
0.0
 30
0.0
  9
$PUCSORGRIGHT
 10
0.0
 20
0.0
 30
0.0
  9
$PUCSORGFRONT
 10
0.0
 20
0.0
 30
0.0
  9
$PUCSORGBACK
 10
0.0
 20
0.0
 30
0.0
  9
$USERI1
 70
     0
  9
$USERI2
 70
     0
  9
$USERI3
 70
     0
  9
$USERI4
 70
     0
  9
$USERI5
 70
     0
  9
$USERR1
 40
0.0
  9
$USERR2
 40
0.0
  9
$USERR3
 40
0.0
  9
$USERR4
 40
0.0
  9
$USERR5
 40
0.0
  9
$WORLDVIEW
 70
     1
  9
$SHADEDGE
 70
     3
  9
$SHADEDIF
 70
    70
  9
$TILEMODE
 70
     0
  9
$MAXACTVP
 70
    64
  9
$PINSBASE
 10
0.0
 20
0.0
 30
0.0
  9
$PLIMCHECK
 70
     0
  9
$PEXTMIN
 10
-2.45
 20
-2.5
 30
0.0
  9
$PEXTMAX
 10
2.45
 20
2.5
 30
0.0
  9
$PLIMMIN
 10
-2.5666668548
 20
-1.066666671
  9
$PLIMMAX
 10
2.566666671
 20
2.9000001444
  9
$UNITMODE
 70
     0
  9
$VISRETAIN
 70
     1
  9
$PLINEGEN
 70
     0
  9
$PSLTSCALE
 70
     1
  9
$TREEDEPTH
 70
  3020
  9
$CMLSTYLE
  2
Standard
  9
$CMLJUST
 70
     0
  9
$CMLSCALE
 40
1.0
  9
$PROXYGRAPHICS
 70
     1
  9
$MEASUREMENT
 70
     0
  9
$CELWEIGHT
370
    -1
  9
$ENDCAPS
280
     0
  9
$JOINSTYLE
280
     0
  9
$LWDISPLAY
290
     1
  9
$INSUNITS
 70
     1
  9
$HYPERLINKBASE
  1

  9
$STYLESHEET
  1

  9
$XEDIT
290
     1
  9
$CEPSNTYPE
380
     0
  9
$PSTYLEMODE
290
     1
  9
$FINGERPRINTGUID
  2
{AB541AA8-D405-4088-92E4-31AB43BD5C78}
  9
$VERSIONGUID
  2
{FAEB1C32-E019-11D5-929B-00C0DF256EC4}
  9
$EXTNAMES
290
     1
  9
$PSVPSCALE
 40
0.0
  9
$OLESTARTUP
290
     0
  0
ENDSEC
  0
SECTION
  2
CLASSES
  0
CLASS
  1
ACDBDICTIONARYWDFLT
  2
AcDbDictionaryWithDefault
  3
ObjectDBX Classes
 90
        0
280
     0
281
     0
  0
CLASS
  1
VISUALSTYLE
  2
AcDbVisualStyle
  3
ObjectDBX Classes
 90
     4095
280
     0
281
     0
  0
CLASS
  1
MATERIAL
  2
AcDbMaterial
  3
ObjectDBX Classes
 90
     1153
280
     0
281
     0
  0
CLASS
  1
SCALE
  2
AcDbScale
  3
ObjectDBX Classes
 90
     1153
280
     0
281
     0
  0
CLASS
  1
TABLESTYLE
  2
AcDbTableStyle
  3
ObjectDBX Classes
 90
     4095
280
     0
281
     0
  0
CLASS
  1
MLEADERSTYLE
  2
AcDbMLeaderStyle
  3
ACDB_MLEADERSTYLE_CLASS
 90
     4095
280
     0
281
     0
  0
CLASS
  1
SUN
  2
AcDbSun
  3
SCENEOE
 90
     1153
280
     0
281
     0
  0
CLASS
  1
ACDBPLACEHOLDER
  2
AcDbPlaceHolder
  3
ObjectDBX Classes
 90
        0
280
     0
281
     0
  0
CLASS
  1
LAYOUT
  2
AcDbLayout
  3
ObjectDBX Classes
 90
        0
280
     0
281
     0
  0
ENDSEC
  0
SECTION
  2
TABLES
  0
TABLE
  2
VPORT
  5
8
330
0
100
AcDbSymbolTable
 70
     1
  0
VPORT
  5
29
330
8
100
AcDbSymbolTableRecord
100
AcDbViewportTableRecord
  2
*Active
 70
     0
 10
0.0
 20
0.0
 11
1.0
 21
1.0
 12
0.0
 22
0.0
 13
0.0
 23
0.0
 14
0.5
 24
0.5
 15
0.5
 25
0.5
 16
0.0
 26
0.0
 36
1.0
 17
0.0
 27
0.0
 37
0.0
 40
5.1
 41
0.98
 42
50.0
 43
0.0
 44
0.0
 50
0.0
 51
0.0
 71
     0
 72
   100
 73
     1
 74
     3
 75
     0
 76
     0
 77
     0
 78
     0
281
     0
 65
     1
110
0.0
120
0.0
130
0.0
111
1.0
121
0.0
131
0.0
112
0.0
122
1.0
132
0.0
 79
     0
146
0.0
  0
ENDTAB
  0
TABLE
  2
LTYPE
  5
5
330
0
100
AcDbSymbolTable
 70
     6
  0
LTYPE
  5
14
330
5
100
AcDbSymbolTableRecord
100
AcDbLinetypeTableRecord
  2
ByBlock
 70
     0
  3

 72
    65
 73
     0
 40
0.0
  0
LTYPE
  5
15
330
5
100
AcDbSymbolTableRecord
100
AcDbLinetypeTableRecord
  2
ByLayer
 70
     0
  3

 72
    65
 73
     0
 40
0.0
  0
LTYPE
  5
16
330
5
100
AcDbSymbolTableRecord
100
AcDbLinetypeTableRecord
  2
Continuous
 70
     0
  3
Solid line
 72
    65
 73
     0
 40
0.0
  0
LTYPE
  5
6E
330
5
100
AcDbSymbolTableRecord
100
AcDbLinetypeTableRecord
  2
HIDDEN
 70
     0
  3
Hidden __ __ __ __ __ __ __ __ __ __ __ __ __ __
 72
    65
 73
     2
 40
0.075
 49
0.05
 74
     0
 49
-0.025
 74
     0
  0
LTYPE
  5
6F
330
5
100
AcDbSymbolTableRecord
100
AcDbLinetypeTableRecord
  2
PHANTOM
 70
     0
  3
Phantom ______  __  __  ______  __  __  ______
 72
    65
 73
     6
 40
0.5
 49
0.25
 74
     0
 49
-0.05
 74
     0
 49
0.05
 74
     0
 49
-0.05
 74
     0
 49
0.05
 74
     0
 49
-0.05
 74
     0
  0
LTYPE
  5
70
330
5
100
AcDbSymbolTableRecord
100
AcDbLinetypeTableRecord
  2
CENTER
 70
     0
  3
Center ____ _ ____ _ ____ _ ____ _ ____ _ ____
 72
    65
 73
     4
 40
0.4
 49
0.25
 74
     0
 49
-0.05
 74
     0
 49
0.05
 74
     0
 49
-0.05
 74
     0
  0
LTYPE
  5
71
330
5
100
AcDbSymbolTableRecord
100
AcDbLinetypeTableRecord
  2
CENTERX2
 70
     0
  3
Center (2x) ________  __  ________  __  _____
 72
    65
 73
     4
 40
0.8
 49
0.5
 74
     0
 49
-0.1
 74
     0
 49
0.1
 74
     0
 49
-0.1
 74
     0
  0
LTYPE
  5
72
330
5
100
AcDbSymbolTableRecord
100
AcDbLinetypeTableRecord
  2
DOT2
 70
     0
  3
Dot (.5x) ........................................
 72
    65
 73
     2
 40
0.025
 49
0.0
 74
     0
 49
-0.025
 74
     0
  0
ENDTAB
  0
TABLE
  2
LAYER
  5
2
330
0
100
AcDbSymbolTable
 70
     1
  0
LAYER
  5
10
330
2
100
AcDbSymbolTableRecord
100
AcDbLayerTableRecord
  2
0
 70
     0
 62
     7
  6
Continuous
370
    -3
390
F
  0
ENDTAB
  0
TABLE
  2
STYLE
  5
3
330
0
100
AcDbSymbolTable
 70
     1
  0
STYLE
  5
11
330
3
100
AcDbSymbolTableRecord
100
AcDbTextStyleTableRecord
  2
Standard
 70
     0
 40
0.0
 41
1.0
 50
0.0
 71
     0
 42
0.1377952756
  3
txt
  4

  0
ENDTAB
  0
TABLE
  2
VIEW
  5
6
330
0
100
AcDbSymbolTable
 70
     0
  0
ENDTAB
  0
TABLE
  2
UCS
  5
7
330
0
100
AcDbSymbolTable
 70
     0
  0
ENDTAB
  0
TABLE
  2
APPID
  5
9
330
0
100
AcDbSymbolTable
 70
     1
  0
APPID
  5
12
330
9
100
AcDbSymbolTableRecord
100
AcDbRegAppTableRecord
  2
ACAD
 70
     0
  0
ENDTAB
  0
TABLE
  2
DIMSTYLE
  5
A
330
0
100
AcDbSymbolTable
 70
     1
100
AcDbDimStyleTable
  0
DIMSTYLE
105
27
330
A
100
AcDbSymbolTableRecord
100
AcDbDimStyleTableRecord
  2
Standard
 70
     0
178
     0
340
11
  0
ENDTAB
  0
TABLE
  2
BLOCK_RECORD
  5
1
330
0
100
AcDbSymbolTable
 70
     2
  0
BLOCK_RECORD
  5
1F
330
1
100
AcDbSymbolTableRecord
100
AcDbBlockTableRecord
  2
*Model_Space
340
22
  0
BLOCK_RECORD
  5
1B
330
1
100
AcDbSymbolTableRecord
100
AcDbBlockTableRecord
  2
*Paper_Space
340
1E
  0
BLOCK_RECORD
  5
23
330
1
100
AcDbSymbolTableRecord
100
AcDbBlockTableRecord
  2
*Paper_Space0
340
26
  0
BLOCK_RECORD
  5
216
330
1
100
AcDbSymbolTableRecord
100
AcDbBlockTableRecord
  2
*Paper_Space1
340
217
  0
ENDTAB
  0
ENDSEC
  0
SECTION
  2
BLOCKS
  0
BLOCK
  5
20
330
1F
100
AcDbEntity
  8
0
100
AcDbBlockBegin
  2
*Model_Space
 70
     0
 10
0.0
 20
0.0
 30
0.0
  3
*Model_Space
  1

  0
ENDBLK
  5
21
330
1F
100
AcDbEntity
  8
0
100
AcDbBlockEnd
  0
BLOCK
  5
1C
330
1B
100
AcDbEntity
 67
     1
  8
0
100
AcDbBlockBegin
  2
*Paper_Space
 70
     0
 10
0.0
 20
0.0
 30
0.0
  3
*Paper_Space
  1

  0
ENDBLK
  5
1D
330
1B
100
AcDbEntity
 67
     1
  8
0
100
AcDbBlockEnd
  0
BLOCK
  5
24
330
23
100
AcDbEntity
  8
0
100
AcDbBlockBegin
  2
*Paper_Space0
 70
     0
 10
0.0
 20
0.0
 30
0.0
  3
*Paper_Space0
  1

  0
SPLINE
  5
1CB
330
23
100
AcDbEntity
  8
0
  6
Continuous
 62
     7
370
    25
100
AcDbSpline
210
0.0
220
0.0
230
1.0
 70
     8
 71
     3
 72
    38
 73
    34
 74
     0
 42
0.000000001
 43
0.00000001
 40
0.0
 40
0.0
 40
0.0
 40
0.0
 40
0.0625000000000001
 40
0.0625000000000001
 40
0.1250000000000002
 40
0.1250000000000002
 40
0.1875000000000004
 40
0.1875000000000004
 40
0.2500000000000005
 40
0.2500000000000005
 40
0.3125000000000006
 40
0.3125000000000006
 40
0.3750000000000008
 40
0.3750000000000008
 40
0.4375000000000009
 40
0.4375000000000009
 40
0.500000000000001
 40
0.500000000000001
 40
0.5625000000000011
 40
0.5625000000000011
 40
0.6250000000000012
 40
0.6250000000000012
 40
0.687500000000001
 40
0.687500000000001
 40
0.7500000000000008
 40
0.7500000000000008
 40
0.8125000000000007
 40
0.8125000000000007
 40
0.8750000000000004
 40
0.8750000000000004
 40
0.9375000000000002
 40
0.9375000000000002
 40
1.0
 40
1.0
 40
1.0
 40
1.0
 10
-2.5
 20
-0.873325859341481
 30
0.0
 10
-2.500000000000001
 20
-0.8717965255540083
 30
0.0
 10
-2.499485073608579
 20
-0.8692608429533528
 30
0.0
 10
-2.497588511418474
 20
-0.8622850656124313
 30
0.0
 10
-2.496187739247293
 20
-0.8577896938907207
 30
0.0
 10
-2.492746523450238
 20
-0.8470783052525133
 30
0.0
 10
-2.490726818696841
 20
-0.8409197530768651
 30
0.0
 10
-2.486326735055673
 20
-0.8270337980564735
 30
0.0
 10
-2.483925668215417
 20
-0.8192330762519441
 30
0.0
 10
-2.479171067487133
 20
-0.8025371626428268
 30
0.0
 10
-2.476803380297885
 20
-0.7936062098112104
 30
0.0
 10
-2.472351115257803
 20
-0.774519131676948
 30
0.0
 10
-2.470265862975233
 20
-0.7643142881169783
 30
0.0
 10
-2.466806368307952
 20
-0.743431253906512
 30
0.0
 10
-2.465406878891738
 20
-0.7326594988848124
 30
0.0
 10
-2.463478218155335
 20
-0.710405641214178
 30
0.0
 10
-2.462966215226745
 20
-0.6989214667743845
 30
0.0
 10
-2.462959114999923
 20
-0.6763235811678585
 30
0.0
 10
-2.463448303904813
 20
-0.665072213011996
 30
0.0
 10
-2.465367602794685
 20
-0.6426656712259793
 30
0.0
 10
-2.466781179581151
 20
-0.6317427699459447
 30
0.0
 10
-2.470242566086216
 20
-0.6108046738914058
 30
0.0
 10
-2.47231549835046
 20
-0.6006440538739433
 30
0.0
 10
-2.476782654995222
 20
-0.5814722778930267
 30
0.0
 10
-2.479154435954052
 20
-0.5725243022208287
 30
0.0
 10
-2.483907469121625
 20
-0.5558277899616018
 30
0.0
 10
-2.486309640071216
 20
-0.5480211821943023
 30
0.0
 10
-2.490713246636519
 20
-0.5341220540776634
 30
0.0
 10
-2.492727676433115
 20
-0.5279791194424237
 30
0.0
 10
-2.496154713910186
 20
-0.5173143245435669
 30
0.0
 10
-2.497571508421994
 20
-0.512773487696664
 30
0.0
 10
-2.499484480724292
 20
-0.5057452868905221
 30
0.0
 10
-2.500000000000001
 20
-0.5032039618739937
 30
0.0
 10
-2.5
 20
-0.5016741406585189
 30
0.0
  0
SPLINE
  5
1CD
330
23
100
AcDbEntity
  8
0
  6
Continuous
 62
     7
370
    25
100
AcDbSpline
210
0.0
220
0.0
230
1.0
 70
     8
 71
     3
 72
    36
 73
    32
 74
     0
 42
0.000000001
 43
0.00000001
 40
0.0
 40
0.0
 40
0.0
 40
0.0
 40
0.1250000000000017
 40
0.1250000000000017
 40
0.1875000000000016
 40
0.1875000000000016
 40
0.2500000000000016
 40
0.2500000000000016
 40
0.3125000000000014
 40
0.3125000000000014
 40
0.3750000000000014
 40
0.3750000000000014
 40
0.4375000000000013
 40
0.4375000000000013
 40
0.5000000000000012
 40
0.5000000000000012
 40
0.5625000000000011
 40
0.5625000000000011
 40
0.6250000000000009
 40
0.6250000000000009
 40
0.6875000000000008
 40
0.6875000000000008
 40
0.7500000000000007
 40
0.7500000000000007
 40
0.8125000000000006
 40
0.8125000000000006
 40
0.8750000000000003
 40
0.8750000000000003
 40
0.9375000000000002
 40
0.9375000000000002
 40
1.0
 40
1.0
 40
1.0
 40
1.0
 10
-2.5
 20
-0.126044634951274
 30
0.0
 10
-2.500000000000002
 20
-0.1231401912664326
 30
0.0
 10
-2.499141391037691
 20
-0.1178137558630705
 30
0.0
 10
-2.497038716032801
 20
-0.1063756455983485
 30
0.0
 10
-2.496220711540215
 20
-0.1020738542040116
 30
0.0
 10
-2.494459152884109
 20
-0.0925248634482637
 30
0.0
 10
-2.493507990783204
 20
-0.0872349931824531
 30
0.0
 10
-2.491618203676226
 20
-0.0758508502010461
 30
0.0
 10
-2.490690859633036
 20
-0.0698261638403548
 30
0.0
 10
-2.488974465627047
 20
-0.0571165243920698
 30
0.0
 10
-2.488179466410564
 20
-0.0503701820621799
 30
0.0
 10
-2.486858003173967
 20
-0.0364608036118865
 30
0.0
 10
-2.486335851304431
 20
-0.0293652383831088
 30
0.0
 10
-2.485623917791994
 20
-0.0148940211588946
 30
0.0
 10
-2.485434608237262
 20
-0.0074466625320491
 30
0.0
 10
-2.485433620263601
 20
0.0073870532242664
 30
0.0
 10
-2.485617905095597
 20
0.0147181981668447
 30
0.0
 10
-2.486325830852194
 20
0.0292139652590424
 30
0.0
 10
-2.48685708819506
 20
0.0364470667876158
 30
0.0
 10
-2.488175283735288
 20
0.0503302464609974
 30
0.0
 10
-2.488957904212291
 20
0.0569838423744828
 30
0.0
 10
-2.490677144437432
 20
0.0697344768810367
 30
0.0
 10
-2.491622506560613
 20
0.07587663973616
 30
0.0
 10
-2.493502836539442
 20
0.0872040749695897
 30
0.0
 10
-2.494441746223769
 20
0.0924289990690448
 30
0.0
 10
-2.496208893495821
 20
0.1020112737262902
 30
0.0
 10
-2.497041755415601
 20
0.1063925687016241
 30
0.0
 10
-2.498431847718598
 20
0.1139536013498168
 30
0.0
 10
-2.498997036066929
 20
0.117175136148495
 30
0.0
 10
-2.499781936623034
 20
0.1224934715333771
 30
0.0
 10
-2.500000000000002
 20
0.1245923882845976
 30
0.0
 10
-2.5
 20
0.1260446349512741
 30
0.0
  0
SPLINE
  5
1CF
330
23
100
AcDbEntity
  8
0
  6
Continuous
 62
     7
370
    25
100
AcDbSpline
210
0.0
220
0.0
230
1.0
 70
     8
 71
     3
 72
    38
 73
    34
 74
     0
 42
0.000000001
 43
0.00000001
 40
0.0
 40
0.0
 40
0.0
 40
0.0
 40
0.0625000000000004
 40
0.0625000000000004
 40
0.1250000000000009
 40
0.1250000000000009
 40
0.1875000000000013
 40
0.1875000000000013
 40
0.2500000000000017
 40
0.2500000000000017
 40
0.3125000000000022
 40
0.3125000000000022
 40
0.3750000000000026
 40
0.3750000000000026
 40
0.4375000000000023
 40
0.4375000000000023
 40
0.500000000000002
 40
0.500000000000002
 40
0.5625000000000018
 40
0.5625000000000018
 40
0.6250000000000016
 40
0.6250000000000016
 40
0.6875000000000013
 40
0.6875000000000013
 40
0.750000000000001
 40
0.750000000000001
 40
0.8125000000000008
 40
0.8125000000000008
 40
0.8750000000000006
 40
0.8750000000000006
 40
0.9375000000000003
 40
0.9375000000000003
 40
1.0
 40
1.0
 40
1.0
 40
1.0
 10
-2.5
 20
0.5016741406585189
 30
0.0
 10
-2.500000000000001
 20
0.5032034744459919
 30
0.0
 10
-2.499485073608579
 20
0.5057391570466472
 30
0.0
 10
-2.497588511418473
 20
0.5127149343875684
 30
0.0
 10
-2.496187739247293
 20
0.5172103061092792
 30
0.0
 10
-2.492746523450238
 20
0.5279216947474867
 30
0.0
 10
-2.490726818696841
 20
0.5340802469231347
 30
0.0
 10
-2.486326735055673
 20
0.547966201943527
 30
0.0
 10
-2.483925668215418
 20
0.555766923748056
 30
0.0
 10
-2.479171067487132
 20
0.572462837357173
 30
0.0
 10
-2.476803380297885
 20
0.5813937901887897
 30
0.0
 10
-2.472351115257803
 20
0.600480868323052
 30
0.0
 10
-2.470265862975232
 20
0.6106857118830215
 30
0.0
 10
-2.466806368307952
 20
0.6315687460934879
 30
0.0
 10
-2.465406878891738
 20
0.6423405011151875
 30
0.0
 10
-2.463478218155333
 20
0.6645943587858216
 30
0.0
 10
-2.462966215226745
 20
0.6760785332256155
 30
0.0
 10
-2.462959114999923
 20
0.6986764188321416
 30
0.0
 10
-2.463448303904814
 20
0.7099277869880041
 30
0.0
 10
-2.465367602794687
 20
0.7323343287740212
 30
0.0
 10
-2.466781179581152
 20
0.7432572300540555
 30
0.0
 10
-2.470242566086216
 20
0.7641953261085944
 30
0.0
 10
-2.472315498350459
 20
0.7743559461260567
 30
0.0
 10
-2.476782654995222
 20
0.7935277221069732
 30
0.0
 10
-2.479154435954052
 20
0.8024756977791707
 30
0.0
 10
-2.483907469121625
 20
0.8191722100383981
 30
0.0
 10
-2.486309640071217
 20
0.8269788178056979
 30
0.0
 10
-2.490713246636519
 20
0.840877945922337
 30
0.0
 10
-2.492727676433115
 20
0.8470208805575765
 30
0.0
 10
-2.496154713910186
 20
0.8576856754564337
 30
0.0
 10
-2.497571508421994
 20
0.862226512303336
 30
0.0
 10
-2.499484480724291
 20
0.8692547131094781
 30
0.0
 10
-2.500000000000001
 20
0.8717960381260064
 30
0.0
 10
-2.5
 20
0.8733258593414811
 30
0.0
  0
LINE
  5
1FA
330
23
100
AcDbEntity
  8
0
  6
Continuous
 62
     7
370
    25
100
AcDbLine
 10
-1.4
 20
-0.94
 30
0.0
 11
2.5
 21
-0.94
 31
0.0
  0
LINE
  5
1FB
330
23
100
AcDbEntity
  8
0
  6
Continuous
 62
     7
370
    25
100
AcDbLine
 10
-2.5
 20
-0.94
 30
0.0
 11
-1.525
 21
-0.94
 31
0.0
  0
LINE
  5
1FC
330
23
100
AcDbEntity
  8
0
  6
Continuous
 62
     7
370
    25
100
AcDbLine
 10
2.49
 20
-0.95
 30
0.0
 11
-2.49
 21
-0.95
 31
0.0
  0
LINE
  5
1FD
330
23
100
AcDbEntity
  8
0
  6
Continuous
 62
     7
370
    25
100
AcDbLine
 10
2.5
 20
0.94
 30
0.0
 11
-1.4
 21
0.94
 31
0.0
  0
LINE
  5
1FE
330
23
100
AcDbEntity
  8
0
  6
Continuous
 62
     7
370
    25
100
AcDbLine
 10
1.375
 20
-0.95
 30
0.0
 11
1.375
 21
0.95
 31
0.0
  0
LINE
  5
1FF
330
23
100
AcDbEntity
  8
0
  6
Continuous
 62
     7
370
    25
100
AcDbLine
 10
-2.49
 20
0.95
 30
0.0
 11
2.49
 21
0.95
 31
0.0
  0
LINE
  5
200
330
23
100
AcDbEntity
  8
0
  6
Continuous
 62
     7
370
    25
100
AcDbLine
 10
-2.125
 20
0.95
 30
0.0
 11
-2.125
 21
-0.95
 31
0.0
  0
LINE
  5
201
330
23
100
AcDbEntity
  8
0
  6
Continuous
 62
     7
370
    25
100
AcDbLine
 10
-1.525
 20
0.94
 30
0.0
 11
-2.5
 21
0.94
 31
0.0
  0
LINE
  5
202
330
23
100
AcDbEntity
  8
0
  6
Continuous
 62
     7
370
    25
100
AcDbLine
 10
-2.5
 20
-0.94
 30
0.0
 11
-2.5
 21
0.94
 31
0.0
  0
LINE
  5
203
330
23
100
AcDbEntity
  8
0
  6
Continuous
 62
     7
370
    25
100
AcDbLine
 10
-1.4
 20
-0.94
 30
0.0
 11
-1.4
 21
0.94
 31
0.0
  0
LINE
  5
204
330
23
100
AcDbEntity
  8
0
  6
Continuous
 62
     7
370
    25
100
AcDbLine
 10
-1.525
 20
-0.94
 30
0.0
 11
-1.525
 21
0.94
 31
0.0
  0
LINE
  5
205
330
23
100
AcDbEntity
  8
0
  6
Continuous
 62
     7
370
    25
100
AcDbLine
 10
1.75
 20
0.94
 30
0.0
 11
1.75
 21
-0.94
 31
0.0
  0
LINE
  5
206
330
23
100
AcDbEntity
  8
0
  6
Continuous
 62
     7
370
    25
100
AcDbLine
 10
-1.525
 20
-0.875
 30
0.0
 11
-1.4
 21
-0.875
 31
0.0
  0
LINE
  5
207
330
23
100
AcDbEntity
  8
0
  6
Continuous
 62
     7
370
    25
100
AcDbLine
 10
-1.4
 20
0.875
 30
0.0
 11
-1.525
 21
0.875
 31
0.0
  0
LINE
  5
208
330
23
100
AcDbEntity
  8
0
  6
Continuous
 62
     7
370
    25
100
AcDbLine
 10
2.125
 20
0.95
 30
0.0
 11
2.125
 21
-0.95
 31
0.0
  0
LINE
  5
209
330
23
100
AcDbEntity
  8
0
  6
Continuous
 62
     7
370
    25
100
AcDbLine
 10
2.5
 20
-0.94
 30
0.0
 11
2.5
 21
0.94
 31
0.0
  0
LINE
  5
20A
330
23
100
AcDbEntity
  8
0
  6
Continuous
 62
     8
370
    25
100
AcDbLine
 10
-1.5256030738
 20
-0.9434202014
 30
0.0
 11
-1.3993969262
 21
-0.9434202014
 31
0.0
  0
LINE
  5
20B
330
23
100
AcDbEntity
  8
0
  6
Continuous
 62
     8
370
    25
100
AcDbLine
 10
-1.3993969262
 20
0.9434202014
 30
0.0
 11
-1.5256030738
 21
0.9434202014
 31
0.0
  0
ARC
  5
20C
330
23
100
AcDbEntity
  8
0
  6
Continuous
 62
     7
370
    25
100
AcDbCircle
 10
-1.39
 20
-0.94
 30
0.0
 40
0.0099999999999998
100
AcDbArc
 50
180.0
 51
270.0
  0
ARC
  5
20D
330
23
100
AcDbEntity
  8
0
  6
Continuous
 62
     7
370
    25
100
AcDbCircle
 10
-2.49
 20
-0.94
 30
0.0
 40
0.0099999999999999
100
AcDbArc
 50
180.0
 51
270.0
  0
ARC
  5
20E
330
23
100
AcDbEntity
  8
0
  6
Continuous
 62
     7
370
    25
100
AcDbCircle
 10
-1.39
 20
0.94
 30
0.0
 40
0.0099999999999998
100
AcDbArc
 50
90.0
 51
180.0
  0
ARC
  5
20F
330
23
100
AcDbEntity
  8
0
  6
Continuous
 62
     7
370
    25
100
AcDbCircle
 10
-2.49
 20
0.94
 30
0.0
 40
0.0099999999999998
100
AcDbArc
 50
90.0
 51
180.0
  0
ARC
  5
210
330
23
100
AcDbEntity
  8
0
  6
Continuous
 62
     7
370
    25
100
AcDbCircle
 10
-1.535
 20
-0.94
 30
0.0
 40
0.01
100
AcDbArc
 50
270.0
 51
0.0
  0
ARC
  5
211
330
23
100
AcDbEntity
  8
0
  6
Continuous
 62
     7
370
    25
100
AcDbCircle
 10
-1.535
 20
0.94
 30
0.0
 40
0.0099999999999998
100
AcDbArc
 50
360.0
 51
90.0
  0
ARC
  5
212
330
23
100
AcDbEntity
  8
0
  6
Continuous
 62
     7
370
    25
100
AcDbCircle
 10
1.74
 20
0.94
 30
0.0
 40
0.0100000000000005
100
AcDbArc
 50
0.0
 51
90.0
  0
ARC
  5
213
330
23
100
AcDbEntity
  8
0
  6
Continuous
 62
     7
370
    25
100
AcDbCircle
 10
1.74
 20
-0.94
 30
0.0
 40
0.0099999999999987
100
AcDbArc
 50
270.0
 51
0.0
  0
ARC
  5
214
330
23
100
AcDbEntity
  8
0
  6
Continuous
 62
     7
370
    25
100
AcDbCircle
 10
2.49
 20
-0.94
 30
0.0
 40
0.0100000000000002
100
AcDbArc
 50
270.0
 51
0.0
  0
ARC
  5
215
330
23
100
AcDbEntity
  8
0
  6
Continuous
 62
     7
370
    25
100
AcDbCircle
 10
2.49
 20
0.94
 30
0.0
 40
0.0100000000000009
100
AcDbArc
 50
0.0
 51
90.0
  0
VIEWPORT
  5
268
330
23
100
AcDbEntity
  8
0
100
AcDbViewport
 10
0.0
 20
0.0
 30
0.0
 40
8.4
 41
6.4
 68
     1
 69
     1
 12
0.0
 22
0.0
 13
0.0
 23
0.0
 14
0.5
 24
0.5
 15
0.5
 25
0.5
 16
0.0
 26
0.0
 36
1.0
 17
0.0
 27
0.0
 37
0.0
 42
50.0
 43
0.0
 44
0.0
 45
5.1
 50
0.0
 51
0.0
 72
   100
 90
   557152
  1

281
     0
 71
     1
 74
     0
110
0.0
120
0.0
130
0.0
111
1.0
121
0.0
131
0.0
112
0.0
122
1.0
132
0.0
 79
     0
146
0.0
  0
ENDBLK
  5
25
330
23
100
AcDbEntity
  8
0
100
AcDbBlockEnd
  0
BLOCK
  5
218
330
216
100
AcDbEntity
  8
0
100
AcDbBlockBegin
  2
*Paper_Space1
 70
     0
 10
0.0
 20
0.0
 30
0.0
  3
*Paper_Space1
  1

  0
CIRCLE
  5
224
330
216
100
AcDbEntity
  8
0
  6
Continuous
 62
     7
370
    25
100
AcDbCircle
 10
1.25
 20
0.5
 30
0.0
 40
0.0979999999999988
  0
CIRCLE
  5
225
330
216
100
AcDbEntity
  8
0
  6
Continuous
 62
     7
370
    25
100
AcDbCircle
 10
-1.25
 20
0.5
 30
0.0
 40
0.0979999999999985
  0
CIRCLE
  5
226
330
216
100
AcDbEntity
  8
0
  6
Continuous
 62
     7
370
    25
100
AcDbCircle
 10
1.25
 20
-0.5
 30
0.0
 40
0.0979999999999988
  0
CIRCLE
  5
227
330
216
100
AcDbEntity
  8
0
  6
Continuous
 62
     7
370
    25
100
AcDbCircle
 10
-1.25
 20
-0.5
 30
0.0
 40
0.0979999999999988
  0
LINE
  5
252
330
216
100
AcDbEntity
  8
0
  6
Continuous
 62
     7
370
    25
100
AcDbLine
 10
2.44
 20
-0.95
 30
0.0
 11
-2.44
 21
-0.95
 31
0.0
  0
LINE
  5
253
330
216
100
AcDbEntity
  8
0
  6
Continuous
 62
     7
370
    25
100
AcDbLine
 10
-2.45
 20
-0.94
 30
0.0
 11
2.45
 21
-0.94
 31
0.0
  0
LINE
  5
254
330
216
100
AcDbEntity
  8
0
  6
Continuous
 62
     7
370
    25
100
AcDbLine
 10
1.5748031496
 20
-0.94
 30
0.0
 11
1.5748031496
 21
0.94
 31
0.0
  0
LINE
  5
255
330
216
100
AcDbEntity
  8
0
  6
Continuous
 62
     7
370
    25
100
AcDbLine
 10
-1.5748031496
 20
-0.94
 30
0.0
 11
-1.5748031496
 21
0.94
 31
0.0
  0
LINE
  5
256
330
216
100
AcDbEntity
  8
0
  6
Continuous
 62
     7
370
    25
100
AcDbLine
 10
-1.9498031496
 20
-0.95
 30
0.0
 11
-1.9498031496
 21
0.95
 31
0.0
  0
LINE
  5
257
330
216
100
AcDbEntity
  8
0
  6
Continuous
 62
     7
370
    25
100
AcDbLine
 10
1.9498031496
 20
0.95
 30
0.0
 11
1.9498031496
 21
-0.95
 31
0.0
  0
LINE
  5
258
330
216
100
AcDbEntity
  8
0
  6
Continuous
 62
     7
370
    25
100
AcDbLine
 10
-2.075
 20
0.95
 30
0.0
 11
-2.075
 21
-0.95
 31
0.0
  0
LINE
  5
259
330
216
100
AcDbEntity
  8
0
  6
Continuous
 62
     7
370
    25
100
AcDbLine
 10
2.45
 20
0.94
 30
0.0
 11
-2.45
 21
0.94
 31
0.0
  0
LINE
  5
25A
330
216
100
AcDbEntity
  8
0
  6
Continuous
 62
     7
370
    25
100
AcDbLine
 10
2.075
 20
-0.95
 30
0.0
 11
2.075
 21
0.95
 31
0.0
  0
LINE
  5
25B
330
216
100
AcDbEntity
  8
0
  6
Continuous
 62
     7
370
    25
100
AcDbLine
 10
-2.44
 20
0.95
 30
0.0
 11
2.44
 21
0.95
 31
0.0
  0
LINE
  5
25C
330
216
100
AcDbEntity
  8
0
  6
Continuous
 62
     7
370
    25
100
AcDbLine
 10
2.45
 20
0.94
 30
0.0
 11
2.45
 21
-0.94
 31
0.0
  0
LINE
  5
25D
330
216
100
AcDbEntity
  8
0
  6
Continuous
 62
     7
370
    25
100
AcDbLine
 10
-2.45
 20
-0.94
 30
0.0
 11
-2.45
 21
0.94
 31
0.0
  0
ARC
  5
25E
330
216
100
AcDbEntity
  8
0
  6
Continuous
 62
     7
370
    25
100
AcDbCircle
 10
-1.5648031496
 20
0.94
 30
0.0
 40
0.01
100
AcDbArc
 50
90.0
 51
180.0
  0
ARC
  5
25F
330
216
100
AcDbEntity
  8
0
  6
Continuous
 62
     7
370
    25
100
AcDbCircle
 10
1.5648031496
 20
0.94
 30
0.0
 40
0.01
100
AcDbArc
 50
360.0
 51
90.0
  0
ARC
  5
260
330
216
100
AcDbEntity
  8
0
  6
Continuous
 62
     7
370
    25
100
AcDbCircle
 10
-1.5648031496
 20
-0.94
 30
0.0
 40
0.01
100
AcDbArc
 50
180.0
 51
270.0
  0
ARC
  5
261
330
216
100
AcDbEntity
  8
0
  6
Continuous
 62
     7
370
    25
100
AcDbCircle
 10
1.5648031496
 20
-0.94
 30
0.0
 40
0.01
100
AcDbArc
 50
270.0
 51
0.0
  0
ARC
  5
262
330
216
100
AcDbEntity
  8
0
  6
Continuous
 62
     7
370
    25
100
AcDbCircle
 10
-2.44
 20
-0.94
 30
0.0
 40
0.0100000000000002
100
AcDbArc
 50
180.0
 51
270.0
  0
ARC
  5
263
330
216
100
AcDbEntity
  8
0
  6
Continuous
 62
     7
370
    25
100
AcDbCircle
 10
2.44
 20
0.94
 30
0.0
 40
0.0100000000000002
100
AcDbArc
 50
0.0
 51
90.0
  0
ARC
  5
264
330
216
100
AcDbEntity
  8
0
  6
Continuous
 62
     7
370
    25
100
AcDbCircle
 10
2.44
 20
-0.94
 30
0.0
 40
0.0100000000000002
100
AcDbArc
 50
270.0
 51
0.0
  0
ARC
  5
265
330
216
100
AcDbEntity
  8
0
  6
Continuous
 62
     7
370
    25
100
AcDbCircle
 10
-2.44
 20
0.94
 30
0.0
 40
0.0100000000000002
100
AcDbArc
 50
90.0
 51
180.0
  0
VIEWPORT
  5
26A
330
216
100
AcDbEntity
  8
0
100
AcDbViewport
 10
0.0
 20
0.0
 30
0.0
 40
8.4
 41
6.4
 68
     1
 69
     1
 12
0.0
 22
0.0
 13
0.0
 23
0.0
 14
0.5
 24
0.5
 15
0.5
 25
0.5
 16
0.0
 26
0.0
 36
1.0
 17
0.0
 27
0.0
 37
0.0
 42
50.0
 43
0.0
 44
0.0
 45
5.1
 50
0.0
 51
0.0
 72
   100
 90
   557152
  1

281
     0
 71
     1
 74
     0
110
0.0
120
0.0
130
0.0
111
1.0
121
0.0
131
0.0
112
0.0
122
1.0
132
0.0
 79
     0
146
0.0
  0
ENDBLK
  5
219
330
216
100
AcDbEntity
  8
0
100
AcDbBlockEnd
  0
ENDSEC
  0
SECTION
  2
ENTITIES
  0
SPLINE
  5
9C
330
1F
100
AcDbEntity
  8
0
  6
Continuous
 62
     7
370
    25
100
AcDbSpline
210
0.0
220
0.0
230
1.0
 70
     8
 71
     3
 72
     8
 73
     4
 74
     0
 42
0.000000001
 43
0.00000001
 40
0.0
 40
0.0
 40
0.0
 40
0.0
 40
1.0
 40
1.0
 40
1.0
 40
1.0
 10
1.575711991952339
 20
-1.525603073792141
 30
0.0
 10
1.576365698710386
 20
-1.527076052212281
 30
0.0
 10
1.578140527416192
 20
-1.531077356041272
 30
0.0
 10
1.579876836853171
 20
-1.535
 30
0.0
  0
SPLINE
  5
9D
330
1F
100
AcDbEntity
  8
0
  6
Continuous
 62
     7
370
    25
100
AcDbSpline
210
0.0
220
0.0
230
1.0
 70
     8
 71
     3
 72
     8
 73
     4
 74
     0
 42
0.000000001
 43
0.00000001
 40
0.0
 40
0.0
 40
0.0
 40
0.0
 40
1.0
 40
1.0
 40
1.0
 40
1.0
 10
1.575711991952339
 20
-1.525603073792141
 30
0.0
 10
1.575525974778079
 20
-1.525183926705032
 30
0.0
 10
1.575123887160799
 20
-1.525000000000065
 30
0.0
 10
1.574578857347535
 20
-1.525
 30
0.0
  0
SPLINE
  5
A0
330
1F
100
AcDbEntity
  8
0
  6
Continuous
 62
     7
370
    25
100
AcDbSpline
210
0.0
220
0.0
230
1.0
 70
     8
 71
     3
 72
     8
 73
     4
 74
     0
 42
0.000000001
 43
0.00000001
 40
0.0
 40
0.0
 40
0.0
 40
0.0
 40
1.0
 40
1.0
 40
1.0
 40
1.0
 10
1.67926280790261
 20
-1.4
 30
0.0
 10
1.679833832183376
 20
-1.4
 30
0.0
 10
1.680524959279376
 20
-1.399778975177756
 30
0.0
 10
1.681303076113646
 20
-1.39939692620803
 30
0.0
  0
SPLINE
  5
A1
330
1F
100
AcDbEntity
  8
0
  6
Continuous
 62
     7
370
    25
100
AcDbSpline
210
0.0
220
0.0
230
1.0
 70
     8
 71
     3
 72
    12
 73
     8
 74
     0
 42
0.000000001
 43
0.00000001
 40
0.0
 40
0.0
 40
0.0
 40
0.0
 40
0.2499999999999962
 40
0.2499999999999962
 40
0.4999999999999923
 40
0.4999999999999923
 40
1.0
 40
1.0
 40
1.0
 40
1.0
 10
1.681303076113754
 20
-1.39939692620786
 30
0.0
 10
1.682409111936939
 20
-1.398853871709978
 30
0.0
 10
1.683885803633428
 20
-1.398128198823383
 30
0.0
 10
1.686958237067192
 20
-1.396615963562798
 30
0.0
 10
1.688568570710166
 20
-1.395822319691961
 30
0.0
 10
1.693530083309664
 20
-1.393373334451456
 30
0.0
 10
1.69693983574572
 20
-1.391685323593009
 30
0.0
 10
1.70033403177881
 20
-1.390000000000001
 30
0.0
  0
SPLINE
  5
AB
330
1F
100
AcDbEntity
  8
0
  6
Continuous
 62
     7
370
    25
100
AcDbSpline
210
0.0
220
0.0
230
1.0
 70
    24
 71
     3
 72
     8
 73
     4
 74
     0
 42
0.000000001
 43
0.00000001
 40
0.0
 40
0.0
 40
0.0
 40
0.0
 40
1.0
 40
1.0
 40
1.0
 40
1.0
 10
1.67926280790261
 20
-1.4
 30
0.0
 10
1.669284180004531
 20
-1.4
 30
0.0
 10
1.659277808265984
 20
-1.4
 30
0.0
 10
1.649242250247065
 20
-1.4
 30
0.0
  0
SPLINE
  5
AD
330
1F
100
AcDbEntity
  8
0
  6
Continuous
 62
     7
370
    25
100
AcDbSpline
210
0.0
220
0.0
230
1.0
 70
    24
 71
     3
 72
     8
 73
     4
 74
     0
 42
0.000000001
 43
0.00000001
 40
0.0
 40
0.0
 40
0.0
 40
0.0
 40
1.0
 40
1.0
 40
1.0
 40
1.0
 10
1.542522285090236
 20
-1.525
 30
0.0
 10
1.553247370447957
 20
-1.525
 30
0.0
 10
1.563933256851098
 20
-1.525
 30
0.0
 10
1.574578857347535
 20
-1.525
 30
0.0
  0
LINE
  5
AE
330
1F
100
AcDbEntity
  8
0
  6
Continuous
 62
     7
370
    25
100
AcDbLine
 10
-1.5748031496
 20
2.5
 30
0.0
 11
1.5748031496
 21
2.5
 31
0.0
  0
LINE
  5
AF
330
1F
100
AcDbEntity
  8
0
  6
Continuous
 62
     7
370
    25
100
AcDbLine
 10
1.5748031496
 20
2.5
 30
0.0
 11
1.5648031496
 21
2.49
 31
0.0
  0
LINE
  5
B0
330
1F
100
AcDbEntity
  8
0
  6
Continuous
 62
     7
370
    25
100
AcDbLine
 10
1.5648031496
 20
2.49
 30
0.0
 11
-1.5648031496
 21
2.49
 31
0.0
  0
LINE
  5
B1
330
1F
100
AcDbEntity
  8
0
  6
Continuous
 62
     7
370
    25
100
AcDbLine
 10
-1.5748031496
 20
2.5
 30
0.0
 11
-1.5648031496
 21
2.49
 31
0.0
  0
LINE
  5
B2
330
1F
100
AcDbEntity
  8
0
  6
Continuous
 62
     7
370
    25
100
AcDbLine
 10
-2.44
 20
1.375
 30
0.0
 11
-2.44
 21
-2.125
 31
0.0
  0
LINE
  5
B3
330
1F
100
AcDbEntity
  8
0
  6
Continuous
 62
     7
370
    25
100
AcDbLine
 10
-2.44
 20
-2.125
 30
0.0
 11
-2.45
 21
-2.125
 31
0.0
  0
LINE
  5
B4
330
1F
100
AcDbEntity
  8
0
  6
Continuous
 62
     7
370
    25
100
AcDbLine
 10
-2.45
 20
-2.125
 30
0.0
 11
-2.45
 21
1.375
 31
0.0
  0
LINE
  5
B5
330
1F
100
AcDbEntity
  8
0
  6
Continuous
 62
     7
370
    25
100
AcDbLine
 10
-2.44
 20
1.375
 30
0.0
 11
-2.45
 21
1.375
 31
0.0
  0
LINE
  5
B6
330
1F
100
AcDbEntity
  8
0
  6
Continuous
 62
     7
370
    25
100
AcDbLine
 10
1.5748031496
 20
2.5
 30
0.0
 11
1.5748031496
 21
2.125
 31
0.0
  0
LINE
  5
B7
330
1F
100
AcDbEntity
  8
0
  6
Continuous
 62
     7
370
    25
100
AcDbLine
 10
1.5748031496
 20
2.125
 30
0.0
 11
1.5648031496
 21
2.125
 31
0.0
  0
LINE
  5
B8
330
1F
100
AcDbEntity
  8
0
  6
Continuous
 62
     7
370
    25
100
AcDbLine
 10
1.5648031496
 20
2.125
 30
0.0
 11
1.5648031496
 21
2.49
 31
0.0
  0
LINE
  5
B9
330
1F
100
AcDbEntity
  8
0
  6
Continuous
 62
     7
370
    25
100
AcDbLine
 10
-2.075
 20
-2.49
 30
0.0
 11
-2.075
 21
-2.5
 31
0.0
  0
LINE
  5
BA
330
1F
100
AcDbEntity
  8
0
  6
Continuous
 62
     7
370
    25
100
AcDbLine
 10
1.9498031496
 20
1.75
 30
0.0
 11
1.9498031496
 21
1.74
 31
0.0
  0
LINE
  5
BB
330
1F
100
AcDbEntity
  8
0
  6
Continuous
 62
     7
370
    25
100
AcDbLine
 10
-2.075
 20
-2.49
 30
0.0
 11
2.075
 21
-2.49
 31
0.0
  0
LINE
  5
BC
330
1F
100
AcDbEntity
  8
0
  6
Continuous
 62
     7
370
    25
100
AcDbLine
 10
2.075
 20
-2.49
 30
0.0
 11
2.075
 21
-2.5
 31
0.0
  0
LINE
  5
BD
330
1F
100
AcDbEntity
  8
0
  6
Continuous
 62
     7
370
    25
100
AcDbLine
 10
2.075
 20
-2.5
 30
0.0
 11
-2.075
 21
-2.5
 31
0.0
  0
LINE
  5
BE
330
1F
100
AcDbEntity
  8
0
  6
Continuous
 62
     7
370
    25
100
AcDbLine
 10
1.9498031496
 20
1.75
 30
0.0
 11
2.075
 21
1.75
 31
0.0
  0
LINE
  5
BF
330
1F
100
AcDbEntity
  8
0
  6
Continuous
 62
     7
370
    25
100
AcDbLine
 10
2.075
 20
1.75
 30
0.0
 11
2.075
 21
1.74
 31
0.0
  0
LINE
  5
C0
330
1F
100
AcDbEntity
  8
0
  6
Continuous
 62
     7
370
    25
100
AcDbLine
 10
2.075
 20
1.74
 30
0.0
 11
1.9498031496
 21
1.74
 31
0.0
  0
LINE
  5
C1
330
1F
100
AcDbEntity
  8
0
  6
Continuous
 62
     7
370
    25
100
AcDbLine
 10
2.44
 20
-2.125
 30
0.0
 11
2.45
 21
-2.125
 31
0.0
  0
LINE
  5
C2
330
1F
100
AcDbEntity
  8
0
  6
Continuous
 62
     7
370
    25
100
AcDbLine
 10
2.45
 20
1.375
 30
0.0
 11
2.44
 21
1.375
 31
0.0
  0
LINE
  5
C3
330
1F
100
AcDbEntity
  8
0
  6
Continuous
 62
     7
370
    25
100
AcDbLine
 10
2.44
 20
-2.125
 30
0.0
 11
2.44
 21
-1.535
 31
0.0
  0
LINE
  5
C4
330
1F
100
AcDbEntity
  8
0
  6
Continuous
 62
     7
370
    25
100
AcDbLine
 10
-1.9498031496
 20
1.74
 30
0.0
 11
-2.075
 21
1.74
 31
0.0
  0
LINE
  5
C5
330
1F
100
AcDbEntity
  8
0
  6
Continuous
 62
     7
370
    25
100
AcDbLine
 10
-1.5648031496
 20
2.49
 30
0.0
 11
-1.5648031496
 21
2.125
 31
0.0
  0
LINE
  5
C6
330
1F
100
AcDbEntity
  8
0
  6
Continuous
 62
     7
370
    25
100
AcDbLine
 10
2.44
 20
-1.39
 30
0.0
 11
2.44
 21
1.375
 31
0.0
  0
LINE
  5
C7
330
1F
100
AcDbEntity
  8
0
  6
Continuous
 62
     7
370
    25
100
AcDbLine
 10
1.7003340318
 20
-1.39
 30
0.0
 11
2.44
 21
-1.39
 31
0.0
  0
LINE
  5
C8
330
1F
100
AcDbEntity
  8
0
  6
Continuous
 62
     7
370
    25
100
AcDbLine
 10
2.44
 20
-1.535
 30
0.0
 11
1.5798768369
 21
-1.535
 31
0.0
  0
LINE
  5
C9
330
1F
100
AcDbEntity
  8
0
  6
Continuous
 62
     7
370
    25
100
AcDbLine
 10
2.45
 20
1.375
 30
0.0
 11
2.45
 21
-1.4
 31
0.0
  0
LINE
  5
CA
330
1F
100
AcDbEntity
  8
0
  6
Continuous
 62
     7
370
    25
100
AcDbLine
 10
2.45
 20
-1.4
 30
0.0
 11
2.44
 21
-1.39
 31
0.0
  0
LINE
  5
CB
330
1F
100
AcDbEntity
  8
0
  6
Continuous
 62
     7
370
    25
100
AcDbLine
 10
2.44
 20
-1.535
 30
0.0
 11
2.45
 21
-1.525
 31
0.0
  0
LINE
  5
CC
330
1F
100
AcDbEntity
  8
0
  6
Continuous
 62
     7
370
    25
100
AcDbLine
 10
1.5745788573
 20
-1.525
 30
0.0
 11
2.45
 21
-1.525
 31
0.0
  0
LINE
  5
CD
330
1F
100
AcDbEntity
  8
0
  6
Continuous
 62
     7
370
    25
100
AcDbLine
 10
2.45
 20
-1.4
 30
0.0
 11
1.6792628079
 21
-1.4
 31
0.0
  0
LINE
  5
CE
330
1F
100
AcDbEntity
  8
0
  6
Continuous
 62
     7
370
    25
100
AcDbLine
 10
-1.5748031496
 20
2.125
 30
0.0
 11
-1.5748031496
 21
2.5
 31
0.0
  0
LINE
  5
CF
330
1F
100
AcDbEntity
  8
0
  6
Continuous
 62
     7
370
    25
100
AcDbLine
 10
-1.5748031496
 20
2.125
 30
0.0
 11
-1.5648031496
 21
2.125
 31
0.0
  0
LINE
  5
D0
330
1F
100
AcDbEntity
  8
0
  6
Continuous
 62
     7
370
    25
100
AcDbLine
 10
-1.9498031496
 20
1.74
 30
0.0
 11
-1.9498031496
 21
1.75
 31
0.0
  0
LINE
  5
D1
330
1F
100
AcDbEntity
  8
0
  6
Continuous
 62
     7
370
    25
100
AcDbLine
 10
-2.075
 20
1.74
 30
0.0
 11
-2.075
 21
1.75
 31
0.0
  0
LINE
  5
D2
330
1F
100
AcDbEntity
  8
0
  6
Continuous
 62
     7
370
    25
100
AcDbLine
 10
-2.075
 20
1.75
 30
0.0
 11
-1.9498031496
 21
1.75
 31
0.0
  0
LINE
  5
D3
330
1F
100
AcDbEntity
  8
0
  6
Continuous
 62
     7
370
    25
100
AcDbLine
 10
2.45
 20
-1.525
 30
0.0
 11
2.45
 21
-2.125
 31
0.0
  0
ARC
  5
D4
330
1F
100
AcDbEntity
  8
0
  6
Continuous
 62
     7
370
    25
100
AcDbCircle
 10
-2.075
 20
-2.125
 30
0.0
 40
0.3650000000000007
100
AcDbArc
 50
180.0
 51
270.0
  0
ARC
  5
D5
330
1F
100
AcDbEntity
  8
0
  6
Continuous
 62
     7
370
    25
100
AcDbCircle
 10
-2.075
 20
-2.125
 30
0.0
 40
0.3749999999999991
100
AcDbArc
 50
180.0
 51
270.0
  0
ARC
  5
D6
330
1F
100
AcDbEntity
  8
0
  6
Continuous
 62
     7
370
    25
100
AcDbCircle
 10
1.9498031496
 20
2.125
 30
0.0
 40
0.375
100
AcDbArc
 50
180.0
 51
270.0
  0
ARC
  5
D7
330
1F
100
AcDbEntity
  8
0
  6
Continuous
 62
     7
370
    25
100
AcDbCircle
 10
1.9498031496
 20
2.125
 30
0.0
 40
0.3850000000000002
100
AcDbArc
 50
180.0
 51
270.0
  0
ARC
  5
D8
330
1F
100
AcDbEntity
  8
0
  6
Continuous
 62
     7
370
    25
100
AcDbCircle
 10
2.075
 20
-2.125
 30
0.0
 40
0.3650000000000002
100
AcDbArc
 50
270.0
 51
0.0
  0
ARC
  5
D9
330
1F
100
AcDbEntity
  8
0
  6
Continuous
 62
     7
370
    25
100
AcDbCircle
 10
2.075
 20
-2.125
 30
0.0
 40
0.3750000000000009
100
AcDbArc
 50
270.0
 51
0.0
  0
ARC
  5
DA
330
1F
100
AcDbEntity
  8
0
  6
Continuous
 62
     7
370
    25
100
AcDbCircle
 10
2.075
 20
1.375
 30
0.0
 40
0.3749999999999996
100
AcDbArc
 50
0.0
 51
90.0
  0
ARC
  5
DB
330
1F
100
AcDbEntity
  8
0
  6
Continuous
 62
     7
370
    25
100
AcDbCircle
 10
2.075
 20
1.375
 30
0.0
 40
0.3650000000000009
100
AcDbArc
 50
0.0
 51
90.0
  0
ARC
  5
DC
330
1F
100
AcDbEntity
  8
0
  6
Continuous
 62
     7
370
    25
100
AcDbCircle
 10
-2.075
 20
1.375
 30
0.0
 40
0.3649999999999998
100
AcDbArc
 50
90.0
 51
180.0
  0
ARC
  5
DD
330
1F
100
AcDbEntity
  8
0
  6
Continuous
 62
     7
370
    25
100
AcDbCircle
 10
-1.9498031496
 20
2.125
 30
0.0
 40
0.3850000000000009
100
AcDbArc
 50
270.0
 51
0.0
  0
ARC
  5
DE
330
1F
100
AcDbEntity
  8
0
  6
Continuous
 62
     7
370
    25
100
AcDbCircle
 10
0.0
 20
-0.1
 30
0.0
 40
2.134299842952061
100
AcDbArc
 50
322.8133382248
 51
317.7511739956
  0
ARC
  5
DF
330
1F
100
AcDbEntity
  8
0
  6
Continuous
 62
     7
370
    25
100
AcDbCircle
 10
0.0
 20
-0.1
 30
0.0
 40
2.124902916744192
100
AcDbArc
 50
322.3013176504
 51
317.8632271977
  0
ARC
  5
E0
330
1F
100
AcDbEntity
  8
0
  6
Continuous
 62
     7
370
    25
100
AcDbCircle
 10
-1.9498031496
 20
2.125
 30
0.0
 40
0.3750000000000007
100
AcDbArc
 50
270.0
 51
0.0
  0
ARC
  5
E1
330
1F
100
AcDbEntity
  8
0
  6
Continuous
 62
     7
370
    25
100
AcDbCircle
 10
-2.075
 20
1.375
 30
0.0
 40
0.3750000000000004
100
AcDbArc
 50
90.0
 51
180.0
  0
ARC
  5
E2
330
1F
100
AcDbEntity
  8
0
  6
Continuous
 62
     7
370
    25
100
AcDbCircle
 10
0.0
 20
-0.1
 30
0.0
 40
2.099999999999995
100
AcDbArc
 50
321.7533801217
 51
317.2678899574
  0
SPLINE
  5
E3
330
1B
100
AcDbEntity
 67
     1
  8
0
  6
Continuous
 62
     7
370
    25
100
AcDbSpline
210
0.0
220
0.0
230
1.0
 70
     8
 71
     3
 72
    19
 73
    15
 74
     0
 42
0.000000001
 43
0.00000001
 40
0.0
 40
0.0
 40
0.0
 40
0.0
 40
0.0894097111101367
 40
0.1763057644831067
 40
0.262625902183418
 40
0.3494457264756555
 40
0.4354982637429561
 40
0.5189281301037145
 40
0.6013546565787415
 40
0.6842564217184173
 40
0.7658067397968341
 40
0.8448768657103881
 40
0.9222797948488746
 40
1.0
 40
1.0
 40
1.0
 40
1.0
 10
0.471696053722881
 20
0.1012439372297375
 30
0.0
 10
0.4734481724233156
 20
0.1011869945876134
 30
0.0
 10
0.4769031508938844
 20
0.1010747101844237
 30
0.0
 10
0.4819816795387156
 20
0.1001382189221418
 30
0.0
 10
0.486840926681862
 20
0.0985740646014275
 30
0.0
 10
0.4914641353011718
 20
0.096452126675082
 30
0.0
 10
0.4957685395322701
 20
0.0938384675881884
 30
0.0
 10
0.4995717800540708
 20
0.0906730788452247
 30
0.0
 10
0.5029313305251495
 20
0.0871241988955865
 30
0.0
 10
0.5057102436849286
 20
0.0831509861667044
 30
0.0
 10
0.5080001212210912
 20
0.0789508210629474
 30
0.0
 10
0.509594644887101
 20
0.0745562336262181
 30
0.0
 10
0.5106163761458564
 20
0.0700621761907268
 30
0.0
 10
0.5107452487509945
 20
0.0670213098951974
 30
0.0
 10
0.5108098168462406
 20
0.0654977669793841
 30
0.0
  0
SPLINE
  5
E4
330
1B
100
AcDbEntity
 67
     1
  8
0
  6
Continuous
 62
     7
370
    25
100
AcDbSpline
210
0.0
220
0.0
230
1.0
 70
     8
 71
     3
 72
    19
 73
    15
 74
     0
 42
0.000000001
 43
0.00000001
 40
0.0
 40
0.0
 40
0.0
 40
0.0
 40
0.0740584262733827
 40
0.1488703523168776
 40
0.226667668369179
 40
0.3077347594511133
 40
0.3911572038059787
 40
0.4739293555425537
 40
0.5579277515150569
 40
0.6449892900513591
 40
0.7333640555176184
 40
0.8210920421841611
 40
0.9092872149973378
 40
0.9999999999999999
 40
0.9999999999999999
 40
0.9999999999999999
 40
0.9999999999999999
 10
0.4313125424670764
 20
0.0658842120631717
 30
0.0
 10
0.43137692924258
 20
0.0673526198734725
 30
0.0
 10
0.4315063578901506
 20
0.0703043756569046
 30
0.0
 10
0.4325529453147685
 20
0.0746983175199211
 30
0.0
 10
0.4342584597444176
 20
0.0790139303161501
 30
0.0
 10
0.4365781840362754
 20
0.0832302969626264
 30
0.0
 10
0.4394674445144775
 20
0.0872047148627107
 30
0.0
 10
0.4429338439566398
 20
0.0907693190471618
 30
0.0
 10
0.4468946036739916
 20
0.0938918183575978
 30
0.0
 10
0.4513299527686164
 20
0.0965129275209222
 30
0.0
 10
0.4561030329156118
 20
0.0986461424338147
 30
0.0
 10
0.4611390850370057
 20
0.1001177338833701
 30
0.0
 10
0.4663503642952092
 20
0.1010797857222467
 30
0.0
 10
0.4698975186002706
 20
0.1011887091332223
 30
0.0
 10
0.471696053722881
 20
0.1012439372297375
 30
0.0
  0
SPLINE
  5
E5
330
1B
100
AcDbEntity
 67
     1
  8
0
  6
Continuous
 62
     7
370
    25
100
AcDbSpline
210
0.0
220
0.0
230
1.0
 70
     8
 71
     3
 72
    15
 73
    11
 74
     0
 42
0.000000001
 43
0.00000001
 40
0.0
 40
0.0
 40
0.0
 40
0.0
 40
0.1458600603916676
 40
0.282425903075821
 40
0.4108504003575525
 40
0.5350294213479323
 40
0.6547010781259428
 40
0.770133432596504
 40
0.8845558441988612
 40
1.0
 40
1.0
 40
1.0
 40
1.0
 10
0.4514352900443024
 20
0.0366800050169371
 30
0.0
 10
0.4498372044272777
 20
0.0375514526003936
 30
0.0
 10
0.4467428633693574
 20
0.0392388190397057
 30
0.0
 10
0.4426456412775295
 20
0.0423390869961276
 30
0.0
 10
0.4391263253935031
 20
0.0456968749809785
 30
0.0
 10
0.4362816514716406
 20
0.0493830873756033
 30
0.0
 10
0.4340425873743119
 20
0.0532825706159162
 30
0.0
 10
0.4325064218409759
 20
0.0573709270088039
 30
0.0
 10
0.4314671901872718
 20
0.0615723488003541
 30
0.0
 10
0.4313642442368298
 20
0.0644426715002656
 30
0.0
 10
0.4313125424670764
 20
0.0658842120631717
 30
0.0
  0
SPLINE
  5
E6
330
1B
100
AcDbEntity
 67
     1
  8
0
  6
Continuous
 62
     7
370
    25
100
AcDbSpline
210
0.0
220
0.0
230
1.0
 70
     8
 71
     3
 72
    23
 73
    19
 74
     0
 42
0.000000001
 43
0.00000001
 40
0.0
 40
0.0
 40
0.0
 40
0.0
 40
0.0588535860286679
 40
0.116315458963351
 40
0.1726748434114559
 40
0.2287803868808985
 40
0.2845803591252742
 40
0.3402565063845451
 40
0.396629805012457
 40
0.4535072628751918
 40
0.5123181897799954
 40
0.5726484440568302
 40
0.6360219358218003
 40
0.7023629463891913
 40
0.7714830560569277
 40
0.8441844774899001
 40
0.9200697939721533
 40
1.0
 40
1.0
 40
1.0
 40
1.0
 10
0.4242461180778174
 20
-0.0010812003131659
 30
0.0
 10
0.4242688692994224
 20
-0.0001143029888818
 30
0.0
 10
0.4243138337435884
 20
0.0017966274001306
 30
0.0
 10
0.4246250482408699
 20
0.0046198293011254
 30
0.0
 10
0.4251253813630484
 20
0.0073677086229492
 30
0.0
 10
0.4258048875360211
 20
0.0100504150669424
 30
0.0
 10
0.4267257940898913
 20
0.0126484179220855
 30
0.0
 10
0.4278376890955797
 20
0.0151740271220624
 30
0.0
 10
0.429134222657669
 20
0.0176300940096261
 30
0.0
 10
0.4306334811242832
 20
0.0200300499572211
 30
0.0
 10
0.4323776552975608
 20
0.0223402669741251
 30
0.0
 10
0.4343526021395646
 20
0.0245999518012811
 30
0.0
 10
0.4365977938192932
 20
0.0267740410586534
 30
0.0
 10
0.439088252831126
 20
0.0288890971577352
 30
0.0
 10
0.4417955181644133
 20
0.0309826394341004
 30
0.0
 10
0.4447899091283986
 20
0.0329415263872983
 30
0.0
 10
0.4479920456555939
 20
0.0349044383858416
 30
0.0
 10
0.4502678490259621
 20
0.0360779945053584
 30
0.0
 10
0.4514352900443024
 20
0.0366800050169371
 30
0.0
  0
SPLINE
  5
E7
330
1B
100
AcDbEntity
 67
     1
  8
0
  6
Continuous
 62
     7
370
    25
100
AcDbSpline
210
0.0
220
0.0
230
1.0
 70
     8
 71
     3
 72
    23
 73
    19
 74
     0
 42
0.000000001
 43
0.00000001
 40
0.0
 40
0.0
 40
0.0
 40
0.0
 40
0.0785564333527021
 40
0.1528628401420911
 40
0.2235596934382866
 40
0.2903749439782081
 40
0.3554030728222033
 40
0.4182911570440927
 40
0.4803885637756449
 40
0.5430726152062785
 40
0.6049239444620939
 40
0.6643983091132993
 40
0.721942554736702
 40
0.7783748910546743
 40
0.83382994065094
 40
0.8888612363188849
 40
0.9440889395778865
 40
1.0
 40
1.0
 40
1.0
 40
1.0
 10
0.4708679571147647
 20
-0.0436177627500728
 30
0.0
 10
0.4690170363031086
 20
-0.0435723896022524
 30
0.0
 10
0.4654153324060193
 20
-0.0434840980652516
 30
0.0
 10
0.4601728962823663
 20
-0.0428858920976377
 30
0.0
 10
0.4552861612490892
 20
-0.0418375508898328
 30
0.0
 10
0.4507267136782747
 20
-0.0404027237511698
 30
0.0
 10
0.4465220407121566
 20
-0.0385361793292721
 30
0.0
 10
0.4426841233431469
 20
-0.0362130136305546
 30
0.0
 10
0.4391575890024451
 20
-0.0335267363801173
 30
0.0
 10
0.436049460121884
 20
-0.0304001978682621
 30
0.0
 10
0.433290072568485
 20
-0.0270514627374548
 30
0.0
 10
0.4308661334713406
 20
-0.0235966749515969
 30
0.0
 10
0.4288514059702475
 20
-0.0200355191429727
 30
0.0
 10
0.427145614814914
 20
-0.016421095238016
 30
0.0
 10
0.4258397871501966
 20
-0.0127027427131679
 30
0.0
 10
0.4249353694207291
 20
-0.0088995925898037
 30
0.0
 10
0.4243609869780777
 20
-0.005018287753105
 30
0.0
 10
0.4242845643441189
 20
-0.0023989313249959
 30
0.0
 10
0.4242461180778174
 20
-0.0010812003131659
 30
0.0
  0
SPLINE
  5
E8
330
1B
100
AcDbEntity
 67
     1
  8
0
  6
Continuous
 62
     7
370
    25
100
AcDbSpline
210
0.0
220
0.0
230
1.0
 70
     8
 71
     3
 72
    15
 73
    11
 74
     0
 42
0.000000001
 43
0.00000001
 40
0.0
 40
0.0
 40
0.0
 40
0.0
 40
0.1192834503733723
 40
0.2370928820686312
 40
0.3547960442151283
 40
0.4745763009408475
 40
0.5974600658149759
 40
0.7249261546156135
 40
0.8588831991927635
 40
1.0
 40
1.0
 40
1.0
 40
1.0
 10
0.5074422239732344
 20
-0.0284911980418152
 30
0.0
 10
0.5063462997880256
 20
-0.0296956773406685
 30
0.0
 10
0.504167994056706
 20
-0.0320897518536313
 30
0.0
 10
0.5004363827332353
 20
-0.0351980514595718
 30
0.0
 10
0.4963410329767022
 20
-0.0378102323293824
 30
0.0
 10
0.4918977915342334
 20
-0.0399390470753992
 30
0.0
 10
0.4871185355733766
 20
-0.041595970655121
 30
0.0
 10
0.4820042834233642
 20
-0.0427866209666698
 30
0.0
 10
0.4765450648045261
 20
-0.0434686063688968
 30
0.0
 10
0.4727928809023321
 20
-0.0435671886405291
 30
0.0
 10
0.4708679571147647
 20
-0.0436177627500728
 30
0.0
  0
SPLINE
  5
E9
330
1B
100
AcDbEntity
 67
     1
  8
0
  6
Continuous
 62
     7
370
    25
100
AcDbSpline
210
0.0
220
0.0
230
1.0
 70
     8
 71
     3
 72
    15
 73
    11
 74
     0
 42
0.000000001
 43
0.00000001
 40
0.0
 40
0.0
 40
0.0
 40
0.0
 40
0.1281581855276746
 40
0.253673136153169
 40
0.3773253059734899
 40
0.4993845547646066
 40
0.6229183680423451
 40
0.745839393104576
 40
0.87139528501403
 40
0.9999999999999999
 40
0.9999999999999999
 40
0.9999999999999999
 40
0.9999999999999999
 10
0.5178762412354997
 20
0.0000505317179264
 30
0.0
 10
0.5178458703481172
 20
-0.001276150668916
 30
0.0
 10
0.5177857549663458
 20
-0.0039021529048544
 30
0.0
 10
0.5172621335480617
 20
-0.0077779840661745
 30
0.0
 10
0.5164781580171861
 20
-0.0115422274491853
 30
0.0
 10
0.5153332953290473
 20
-0.0151940577962381
 30
0.0
 10
0.5138485161617383
 20
-0.0187133244632461
 30
0.0
 10
0.5120187194696212
 20
-0.0221030399531299
 30
0.0
 10
0.50994741218038
 20
-0.0254187607867452
 30
0.0
 10
0.5082839381958879
 20
-0.0274588947089051
 30
0.0
 10
0.5074422239732344
 20
-0.0284911980418152
 30
0.0
  0
SPLINE
  5
EA
330
1B
100
AcDbEntity
 67
     1
  8
0
  6
Continuous
 62
     7
370
    25
100
AcDbSpline
210
0.0
220
0.0
230
1.0
 70
     8
 71
     3
 72
    23
 73
    19
 74
     0
 42
0.000000001
 43
0.00000001
 40
0.0
 40
0.0
 40
0.0
 40
0.0
 40
0.0795248295850124
 40
0.1550999763495355
 40
0.2272198200732693
 40
0.2959105041914722
 40
0.362055880947179
 40
0.4255201169126371
 40
0.4858127192253082
 40
0.5444947060018112
 40
0.6014596357222256
 40
0.6578405937966489
 40
0.7139744721931378
 40
0.7694679515974511
 40
0.8261299671813291
 40
0.8828853593090689
 40
0.9407008816662019
 40
1.0
 40
1.0
 40
1.0
 40
1.0
 10
0.4912391336744255
 20
0.0366800050169371
 30
0.0
 10
0.492367029231509
 20
0.0360918965146288
 30
0.0
 10
0.4945668022475753
 20
0.0349448885263694
 30
0.0
 10
0.4976997632007323
 20
0.0330980055465124
 30
0.0
 10
0.5005629522263517
 20
0.0311515108667283
 30
0.0
 10
0.5032358089896543
 20
0.0291973431733202
 30
0.0
 10
0.5056713739820444
 20
0.0271606639843892
 30
0.0
 10
0.507842413858396
 20
0.0250333743699009
 30
0.0
 10
0.5098025563748476
 20
0.0228685733740547
 30
0.0
 10
0.5115122722799408
 20
0.0206296032888277
 30
0.0
 10
0.5130160847491974
 20
0.018322412379609
 30
0.0
 10
0.5143157751115418
 20
0.0159409449369992
 30
0.0
 10
0.5154266886088921
 20
0.0134904199853997
 30
0.0
 10
0.5163071192674361
 20
0.0109440880981723
 30
0.0
 10
0.5170323866568398
 20
0.0083393533872236
 30
0.0
 10
0.5175314262254155
 20
0.0056425824481595
 30
0.0
 10
0.5177998088166572
 20
0.0028715454050284
 30
0.0
 10
0.5178505495033213
 20
0.0009987776222001
 30
0.0
 10
0.5178762412354997
 20
0.0000505317179264
 30
0.0
  0
SPLINE
  5
EB
330
1B
100
AcDbEntity
 67
     1
  8
0
  6
Continuous
 62
     7
370
    25
100
AcDbSpline
210
0.0
220
0.0
230
1.0
 70
     8
 71
     3
 72
    15
 73
    11
 74
     0
 42
0.000000001
 43
0.00000001
 40
0.0
 40
0.0
 40
0.0
 40
0.0
 40
0.1219040408698845
 40
0.2394126076020049
 40
0.355410104280177
 40
0.4720907288033019
 40
0.5928589821563581
 40
0.7187034677136833
 40
0.8548923829515271
 40
1.0
 40
1.0
 40
1.0
 40
1.0
 10
0.5108098168462406
 20
0.0654977669793841
 30
0.0
 10
0.5107533380811817
 20
0.0640026227330548
 30
0.0
 10
0.5106424169966931
 20
0.0610662444128568
 30
0.0
 10
0.5097093485113667
 20
0.0567856727404909
 30
0.0
 10
0.5081379582121163
 20
0.0527769310502885
 30
0.0
 10
0.5059925187245913
 20
0.0489945313585531
 30
0.0
 10
0.5031962396897098
 20
0.0455070708227372
 30
0.0
 10
0.4997864470500742
 20
0.0422702019293757
 30
0.0
 10
0.4957903258589178
 20
0.0392573346721827
 30
0.0
 10
0.4927879287639001
 20
0.0375570841101038
 30
0.0
 10
0.4912391336744255
 20
0.0366800050169371
 30
0.0
  0
SPLINE
  5
FD
330
1B
100
AcDbEntity
 67
     1
  8
0
  6
Continuous
 62
     7
370
    25
100
AcDbSpline
210
0.0
220
0.0
230
1.0
 70
     8
 71
     3
 72
    15
 73
    11
 74
     0
 42
0.000000001
 43
0.00000001
 40
0.0
 40
0.0
 40
0.0
 40
0.0
 40
0.0751731173762211
 40
0.164746257511801
 40
0.2680168809877798
 40
0.3859118756529554
 40
0.5177894792733981
 40
0.6636909770022813
 40
0.8244132205366415
 40
1.0
 40
1.0
 40
1.0
 40
1.0
 10
-0.1067294270463498
 20
0.0257767330100726
 30
0.0
 10
-0.1075927079121535
 20
0.0255931510778721
 30
0.0
 10
-0.1094846381232012
 20
0.0251908205994719
 30
0.0
 10
-0.1126004933270494
 20
0.0247416687551851
 30
0.0
 10
-0.1162282644266486
 20
0.0243582986494588
 30
0.0
 10
-0.1203629998563954
 20
0.0240708522879999
 30
0.0
 10
-0.1250009882391345
 20
0.0238247747894956
 30
0.0
 10
-0.1301447385277071
 20
0.0236291805418312
 30
0.0
 10
-0.1358043478654752
 20
0.0235217059813918
 30
0.0
 10
-0.1397520346401979
 20
0.0235161629578292
 30
0.0
 10
-0.1418131200102101
 20
0.0235132689478881
 30
0.0
  0
SPLINE
  5
FE
330
1B
100
AcDbEntity
 67
     1
  8
0
  6
Continuous
 62
     7
370
    25
100
AcDbSpline
210
0.0
220
0.0
230
1.0
 70
     8
 71
     3
 72
    23
 73
    19
 74
     0
 42
0.000000001
 43
0.00000001
 40
0.0
 40
0.0
 40
0.0
 40
0.0
 40
0.0701188944197149
 40
0.1371923527859712
 40
0.2020161807247511
 40
0.2646314069747434
 40
0.3261165471458178
 40
0.3860103046676407
 40
0.4458118469576801
 40
0.5052976967309599
 40
0.5646332777264886
 40
0.6242826253338405
 40
0.6839020319037509
 40
0.7439527709382697
 40
0.8053877310076346
 40
0.8683880308962793
 40
0.9330840282524765
 40
1.0
 40
1.0
 40
1.0
 40
1.0
 10
-0.0792366196568889
 20
0.0607500130928507
 30
0.0
 10
-0.0792532111816511
 20
0.0596170297547608
 30
0.0
 10
-0.0792856736204456
 20
0.0574002713317108
 30
0.0
 10
-0.0796752911530769
 20
0.0541572481746756
 30
0.0
 10
-0.0802001018467272
 20
0.0510580989568963
 30
0.0
 10
-0.0810070724107901
 20
0.048109695395108
 30
0.0
 10
-0.0820639886745068
 20
0.0453295469513771
 30
0.0
 10
-0.0833038332747308
 20
0.0426751677379621
 30
0.0
 10
-0.084799247856218
 20
0.0401917160884111
 30
0.0
 10
-0.0865175482385211
 20
0.037870176027716
 30
0.0
 10
-0.0884290283327297
 20
0.0357083684562921
 30
0.0
 10
-0.090525600700732
 20
0.0337219592242958
 30
0.0
 10
-0.0927988011928685
 20
0.0319225758218341
 30
0.0
 10
-0.0952414054478434
 20
0.0303061843383543
 30
0.0
 10
-0.0978772262681796
 20
0.0289102678226974
 30
0.0
 10
-0.1006662874323901
 20
0.0276599802272039
 30
0.0
 10
-0.1036328313860091
 20
0.0266099384697829
 30
0.0
 10
-0.1056856862669291
 20
0.0260575738466963
 30
0.0
 10
-0.1067294270463498
 20
0.0257767330100726
 30
0.0
  0
SPLINE
  5
FF
330
1B
100
AcDbEntity
 67
     1
  8
0
  6
Continuous
 62
     7
370
    25
100
AcDbSpline
210
0.0
220
0.0
230
1.0
 70
     8
 71
     3
 72
    23
 73
    19
 74
     0
 42
0.000000001
 43
0.00000001
 40
0.0
 40
0.0
 40
0.0
 40
0.0
 40
0.0624813386352045
 40
0.1234903826872902
 40
0.1834110942063115
 40
0.2431532209997792
 40
0.3021267353720874
 40
0.3617096708329062
 40
0.4218422916948801
 40
0.4829319014466687
 40
0.5445522544313237
 40
0.6056807199653584
 40
0.6676797383436879
 40
0.7299843875380634
 40
0.7945509212861293
 40
0.8603456197120827
 40
0.9289073562657088
 40
1.0
 40
1.0
 40
1.0
 40
1.0
 10
-0.1056252982355281
 20
0.0956404835148172
 30
0.0
 10
-0.1046727969053985
 20
0.0953797768285298
 30
0.0
 10
-0.1027902387474402
 20
0.0948645066828831
 30
0.0
 10
-0.1000775992552502
 20
0.0938324703255742
 30
0.0
 10
-0.0974967391969677
 20
0.0926087630352005
 30
0.0
 10
-0.0950388038251102
 20
0.0912141197339841
 30
0.0
 10
-0.092733997404997
 20
0.0895887038211045
 30
0.0
 10
-0.0905479328000361
 20
0.0877984039101089
 30
0.0
 10
-0.0884999020797331
 20
0.0858018854623753
 30
0.0
 10
-0.0866014220842931
 20
0.0836215413738937
 30
0.0
 10
-0.0848579261164211
 20
0.0812939740557246
 30
0.0
 10
-0.0833567575051149
 20
0.0787844374451936
 30
0.0
 10
-0.0820997800628605
 20
0.0761351735310267
 30
0.0
 10
-0.0810216985083661
 20
0.0733480250602654
 30
0.0
 10
-0.0802457751040671
 20
0.0703995871275355
 30
0.0
 10
-0.0796612514936161
 20
0.0673103464828825
 30
0.0
 10
-0.0792902425323702
 20
0.0640806342702252
 30
0.0
 10
-0.0792547086050023
 20
0.061873552871766
 30
0.0
 10
-0.0792366196568889
 20
0.0607500130928507
 30
0.0
  0
SPLINE
  5
100
330
1B
100
AcDbEntity
 67
     1
  8
0
  6
Continuous
 62
     7
370
    25
100
AcDbSpline
210
0.0
220
0.0
230
1.0
 70
     8
 71
     3
 72
    15
 73
    11
 74
     0
 42
0.000000001
 43
0.00000001
 40
0.0
 40
0.0
 40
0.0
 40
0.0
 40
0.1769557521312497
 40
0.3390550796425813
 40
0.4863182249420763
 40
0.6187809228353786
 40
0.7356188277673815
 40
0.8387424767201108
 40
0.9264570678763172
 40
1.0
 40
1.0
 40
1.0
 40
1.0
 10
-0.1370101596831356
 20
0.0977107250351079
 30
0.0
 10
-0.1351514625905505
 20
0.0977086818760196
 30
0.0
 10
-0.1315901164169011
 20
0.0977047670924701
 30
0.0
 10
-0.1264832244598583
 20
0.0975860763119329
 30
0.0
 10
-0.1218450460493726
 20
0.0974275451271784
 30
0.0
 10
-0.11768558223336
 20
0.0972077855526461
 30
0.0
 10
-0.1139920350645968
 20
0.0969480772751851
 30
0.0
 10
-0.1107811177596142
 20
0.0965838237563887
 30
0.0
 10
-0.1080275919196992
 20
0.0962034971598011
 30
0.0
 10
-0.1063777317052694
 20
0.0958168276117934
 30
0.0
 10
-0.1056252982355281
 20
0.0956404835148172
 30
0.0
  0
SPLINE
  5
103
330
1B
100
AcDbEntity
 67
     1
  8
0
  6
Continuous
 62
     7
370
    25
100
AcDbSpline
210
0.0
220
0.0
230
1.0
 70
     8
 71
     3
 72
    23
 73
    19
 74
     0
 42
0.000000001
 43
0.00000001
 40
0.0
 40
0.0
 40
0.0
 40
0.0
 40
0.0645578459297189
 40
0.1270135315497587
 40
0.1879548102020906
 40
0.248013912789634
 40
0.3077476818488373
 40
0.3682345146974851
 40
0.4294698439426693
 40
0.4927434367465852
 40
0.5562577687060833
 40
0.6182167855431435
 40
0.6796554755875548
 40
0.7412455456206292
 40
0.8034152647056965
 40
0.8668154615439922
 40
0.9323283119492652
 40
1.0
 40
1.0
 40
1.0
 40
1.0
 10
-0.4431574757037292
 20
0.0296135806276781
 30
0.0
 10
-0.4430962476109312
 20
0.0320921417907206
 30
0.0
 10
-0.4429757851607928
 20
0.0369685561435604
 30
0.0
 10
-0.4419523286461574
 20
0.0441250109974626
 30
0.0
 10
-0.44030591934728
 20
0.0509813652830239
 30
0.0
 10
-0.4379674591663745
 20
0.0575248197943577
 30
0.0
 10
-0.4350026815559264
 20
0.0637897914570373
 30
0.0
 10
-0.4313402164441344
 20
0.0697284215691143
 30
0.0
 10
-0.4270226124196692
 20
0.0753786892721272
 30
0.0
 10
-0.4220837318022041
 20
0.0806548605830539
 30
0.0
 10
-0.4166676949793791
 20
0.0854792445445603
 30
0.0
 10
-0.4108677416766621
 20
0.0897235832748094
 30
0.0
 10
-0.4046952240793144
 20
0.0932557689440647
 30
0.0
 10
-0.3982181433046853
 20
0.0962083737639906
 30
0.0
 10
-0.3913879983611173
 20
0.0984778408165829
 30
0.0
 10
-0.3842193617813758
 20
0.1000665489539036
 30
0.0
 10
-0.3767257037191214
 20
0.1010554117999624
 30
0.0
 10
-0.3716130097959197
 20
0.1011804199851131
 30
0.0
 10
-0.3690152260570505
 20
0.1012439372297375
 30
0.0
  0
SPLINE
  5
104
330
1B
100
AcDbEntity
 67
     1
  8
0
  6
Continuous
 62
     7
370
    25
100
AcDbSpline
210
0.0
220
0.0
230
1.0
 70
     8
 71
     3
 72
    15
 73
    11
 74
     0
 42
0.000000001
 43
0.00000001
 40
0.0
 40
0.0
 40
0.0
 40
0.0
 40
0.1243285095938499
 40
0.247156016361187
 40
0.3687797492913395
 40
0.4907338624016481
 40
0.6136137718478439
 40
0.7389575757222155
 40
0.8673105751912625
 40
1.0
 40
1.0
 40
1.0
 40
1.0
 10
-0.4256846372724754
 20
-0.0195201514538887
 30
0.0
 10
-0.4270797413472706
 20
-0.0178059314177814
 30
0.0
 10
-0.4298531065767104
 20
-0.0143981869135252
 30
0.0
 10
-0.4334013618346298
 20
-0.0088751167852398
 30
0.0
 10
-0.4364386671578295
 20
-0.0031086518688689
 30
0.0
 10
-0.4388944120703558
 20
0.0029315028074432
 30
0.0
 10
-0.4408142047142388
 20
0.009231793643682
 30
0.0
 10
-0.4421441730244652
 20
0.0157953965732368
 30
0.0
 10
-0.443008409421229
 20
0.0226161816993073
 30
0.0
 10
-0.4431072396882044
 20
0.0272554253473346
 30
0.0
 10
-0.4431574757037292
 20
0.0296135806276781
 30
0.0
  0
SPLINE
  5
105
330
1B
100
AcDbEntity
 67
     1
  8
0
  6
Continuous
 62
     7
370
    25
100
AcDbSpline
210
0.0
220
0.0
230
1.0
 70
     8
 71
     3
 72
    23
 73
    19
 74
     0
 42
0.000000001
 43
0.00000001
 40
0.0
 40
0.0
 40
0.0
 40
0.0
 40
0.0696628008990778
 40
0.1377495622582733
 40
0.2039167435177836
 40
0.2687798623293377
 40
0.3324137064772243
 40
0.39475354044714
 40
0.4561800316591689
 40
0.51699564919672
 40
0.5773959379659527
 40
0.6371983435092754
 40
0.6969991842614552
 40
0.7567561942255594
 40
0.8165539052726082
 40
0.8769479965978708
 40
0.9381317879205956
 40
1.0
 40
1.0
 40
1.0
 40
1.0
 10
-0.3688496067354272
 20
-0.0436177627500728
 30
0.0
 10
-0.3703316408715572
 20
-0.043607448082522
 30
0.0
 10
-0.3732621798517438
 20
-0.0435870521047316
 30
0.0
 10
-0.3775889023561584
 20
-0.0432566518129615
 30
0.0
 10
-0.3818010905766956
 20
-0.0428058747692612
 30
0.0
 10
-0.3858867057682981
 20
-0.042127129451782
 30
0.0
 10
-0.3898680433685523
 20
-0.041326171181944
 30
0.0
 10
-0.3937090112618922
 20
-0.0402524996612659
 30
0.0
 10
-0.3974474053704932
 20
-0.0390497765669296
 30
0.0
 10
-0.401068206185301
 20
-0.0376361944116253
 30
0.0
 10
-0.4045744935788677
 20
-0.0360410691148781
 30
0.0
 10
-0.4079549585933527
 20
-0.0342382518353066
 30
0.0
 10
-0.4112080464830765
 20
-0.0322429028328939
 30
0.0
 10
-0.4143657402175354
 20
-0.0300990047847188
 30
0.0
 10
-0.4173813931181269
 20
-0.0277376936874573
 30
0.0
 10
-0.4202811382105445
 20
-0.0251917631951881
 30
0.0
 10
-0.4230812357000173
 20
-0.0224697942679694
 30
0.0
 10
-0.4248136248729209
 20
-0.0205070047663014
 30
0.0
 10
-0.4256846372724754
 20
-0.0195201514538887
 30
0.0
  0
SPLINE
  5
106
330
1B
100
AcDbEntity
 67
     1
  8
0
  6
Continuous
 62
     7
370
    25
100
AcDbSpline
210
0.0
220
0.0
230
1.0
 70
     8
 71
     3
 72
    23
 73
    19
 74
     0
 42
0.000000001
 43
0.00000001
 40
0.0
 40
0.0
 40
0.0
 40
0.0
 40
0.0616742388774261
 40
0.1230530616348063
 40
0.1834750007317025
 40
0.2437265005106117
 40
0.3042789165122542
 40
0.3648629209606832
 40
0.4259462039686199
 40
0.4873912299654086
 40
0.5492203840754762
 40
0.6111435886926031
 40
0.6735285303101519
 40
0.7369614566573043
 40
0.8007852828728406
 40
0.8660125956416155
 40
0.9321007477905793
 40
0.9999999999999999
 40
0.9999999999999999
 40
0.9999999999999999
 40
0.9999999999999999
 10
-0.3088954123078075
 20
-0.0147171911268142
 30
0.0
 10
-0.3097662040354106
 20
-0.0158407522261572
 30
0.0
 10
-0.3115036164474353
 20
-0.018082492630651
 30
0.0
 10
-0.3143169242028046
 20
-0.0212427961630942
 30
0.0
 10
-0.3172805973286197
 20
-0.0242153959858947
 30
0.0
 10
-0.3204166489036939
 20
-0.0269763259554807
 30
0.0
 10
-0.3236890029032879
 20
-0.0295808324753563
 30
0.0
 10
-0.3271564167751248
 20
-0.0319549203208563
 30
0.0
 10
-0.3307733078186391
 20
-0.0341317267886661
 30
0.0
 10
-0.3345274211613802
 20
-0.0361249127930791
 30
0.0
 10
-0.3384147681219955
 20
-0.0378933083452242
 30
0.0
 10
-0.342430690757507
 20
-0.0394072362110514
 30
0.0
 10
-0.3465578787694757
 20
-0.0407113657202062
 30
0.0
 10
-0.3507965208329429
 20
-0.0417842766148472
 30
0.0
 10
-0.3551554088969948
 20
-0.0426217208618338
 30
0.0
 10
-0.3596188133888531
 20
-0.0431815505801312
 30
0.0
 10
-0.3641963675313347
 20
-0.0435650905185108
 30
0.0
 10
-0.3672846124575447
 20
-0.0436000478342083
 30
0.0
 10
-0.3688496067354272
 20
-0.0436177627500728
 30
0.0
  0
SPLINE
  5
108
330
1B
100
AcDbEntity
 67
     1
  8
0
  6
Continuous
 62
     7
370
    25
100
AcDbSpline
210
0.0
220
0.0
230
1.0
 70
     8
 71
     3
 72
    15
 73
    11
 74
     0
 42
0.000000001
 43
0.00000001
 40
0.0
 40
0.0
 40
0.0
 40
0.0
 40
0.1285151895116617
 40
0.2529486363526577
 40
0.3747547340060044
 40
0.4959397538670499
 40
0.617180641429892
 40
0.7409094692781376
 40
0.8678111481862024
 40
1.0
 40
1.0
 40
1.0
 40
1.0
 10
-0.3689324163962388
 20
-0.0294849139715547
 30
0.0
 10
-0.366526798719326
 20
-0.0294184265797867
 30
0.0
 10
-0.3617919676594867
 20
-0.0292875634876786
 30
0.0
 10
-0.3548483445751835
 20
-0.0281789316324477
 30
0.0
 10
-0.3482012671882236
 20
-0.0263813758121712
 30
0.0
 10
-0.3418503779543095
 20
-0.0238657095791326
 30
0.0
 10
-0.3358135808596308
 20
-0.020595422653828
 30
0.0
 10
-0.330081428878961
 20
-0.0166309392913317
 30
0.0
 10
-0.3246490835835298
 20
-0.011934548237764
 30
0.0
 10
-0.3213824976687113
 20
-0.0083485983063787
 30
0.0
 10
-0.3197158746538604
 20
-0.0065190347064629
 30
0.0
  0
SPLINE
  5
109
330
1B
100
AcDbEntity
 67
     1
  8
0
  6
Continuous
 62
     7
370
    25
100
AcDbSpline
210
0.0
220
0.0
230
1.0
 70
     8
 71
     3
 72
    23
 73
    19
 74
     0
 42
0.000000001
 43
0.00000001
 40
0.0
 40
0.0
 40
0.0
 40
0.0
 40
0.0643232165798421
 40
0.1262901037035559
 40
0.1867264692161329
 40
0.2461464323353445
 40
0.3055756426461386
 40
0.3654293856180522
 40
0.4263263089482599
 40
0.4888399064006412
 40
0.5517249718140474
 40
0.6139185964661595
 40
0.6754837657683964
 40
0.7373338970992861
 40
0.8002290443945267
 40
0.864502298123323
 40
0.9310407391556971
 40
1.0
 40
1.0
 40
1.0
 40
1.0
 10
-0.4307912330225259
 20
0.0286750711384796
 30
0.0
 10
-0.430741555108199
 20
0.02663840499979
 30
0.0
 10
-0.430644019112866
 20
0.0226396811868201
 30
0.0
 10
-0.4297759744640294
 20
0.0167825705355901
 30
0.0
 10
-0.4284568763817992
 20
0.0111715203867605
 30
0.0
 10
-0.4264798851638582
 20
0.0058416053351494
 30
0.0
 10
-0.4240421272677764
 20
0.0007271030494012
 30
0.0
 10
-0.4209617882321336
 20
-0.0040854502343163
 30
0.0
 10
-0.4173942080209448
 20
-0.0086687795457944
 30
0.0
 10
-0.4132889159161763
 20
-0.0129145648902212
 30
0.0
 10
-0.4087847499323481
 20
-0.0167930580121935
 30
0.0
 10
-0.4039521549877055
 20
-0.0202084352370484
 30
0.0
 10
-0.3988031672796703
 20
-0.0230554778538351
 30
0.0
 10
-0.3933946385321663
 20
-0.0254246096064459
 30
0.0
 10
-0.3876849490078116
 20
-0.027245740616507
 30
0.0
 10
-0.3816843662356119
 20
-0.0285277927229345
 30
0.0
 10
-0.3754059412257663
 20
-0.0293640990434706
 30
0.0
 10
-0.3711158073718284
 20
-0.0294441655028855
 30
0.0
 10
-0.3689324163962388
 20
-0.0294849139715547
 30
0.0
  0
SPLINE
  5
10A
330
1B
100
AcDbEntity
 67
     1
  8
0
  6
Continuous
 62
     7
370
    25
100
AcDbSpline
210
0.0
220
0.0
230
1.0
 70
     8
 71
     3
 72
    31
 73
    27
 74
     0
 42
0.000000001
 43
0.00000001
 40
0.0
 40
0.0
 40
0.0
 40
0.0
 40
0.0439549089061949
 40
0.0875018747976052
 40
0.1304626267314906
 40
0.1727520205665181
 40
0.2154030673796033
 40
0.2576498297432398
 40
0.3001527489572942
 40
0.343121489502087
 40
0.3859251632064337
 40
0.4276857274028023
 40
0.4688179504865899
 40
0.5094918001549962
 40
0.5498830310733493
 40
0.5899800229668862
 40
0.63040523000684
 40
0.6708686260826384
 40
0.7113839438381759
 40
0.7516272580635844
 40
0.7917755768651915
 40
0.8324589188037423
 40
0.8733190450172882
 40
0.9145429556263492
 40
0.9569235582098846
 40
1.0
 40
1.0
 40
1.0
 40
1.0
 10
-0.3697881162246256
 20
0.0871110884512194
 30
0.0
 10
-0.3711693484821221
 20
0.0870951844153989
 30
0.0
 10
-0.3739189938589287
 20
0.0870635239482117
 30
0.0
 10
-0.3779996424219401
 20
0.0866458418535295
 30
0.0
 10
-0.3820040932538838
 20
0.0860587863399639
 30
0.0
 10
-0.3859297415302078
 20
0.0851877106225053
 30
0.0
 10
-0.389771590291596
 20
0.0840864264068556
 30
0.0
 10
-0.3935547557272507
 20
0.0827704652287574
 30
0.0
 10
-0.39722446438068
 20
0.0811423219271848
 30
0.0
 10
-0.4008314816332086
 20
0.0793427841336059
 30
0.0
 10
-0.4042873560818429
 20
0.0773102075689086
 30
0.0
 10
-0.4075572398526039
 20
0.0750931464712108
 30
0.0
 10
-0.4106292070935953
 20
0.0727164103909045
 30
0.0
 10
-0.4135056878862405
 20
0.0701710912421722
 30
0.0
 10
-0.4161896228600782
 20
0.0674686518533716
 30
0.0
 10
-0.4186615642303618
 20
0.0645802919482896
 30
0.0
 10
-0.4209129583352983
 20
0.061515245746823
 30
0.0
 10
-0.4229884317629909
 20
0.0583139304886202
 30
0.0
 10
-0.4248472007927057
 20
0.0549856709754357
 30
0.0
 10
-0.4264034952569139
 20
0.051518148517227
 30
0.0
 10
-0.4277816496744583
 20
0.0479707428860825
 30
0.0
 10
-0.4288721710384752
 20
0.0443033743495194
 30
0.0
 10
-0.4297353409924659
 20
0.0405418481352186
 30
0.0
 10
-0.4303309182866968
 20
0.0366760690820698
 30
0.0
 10
-0.4307438502234807
 20
0.0327141131924145
 30
0.0
 10
-0.4307753532510684
 20
0.0300287071839726
 30
0.0
 10
-0.4307912330225259
 20
0.0286750711384796
 30
0.0
  0
SPLINE
  5
10B
330
1B
100
AcDbEntity
 67
     1
  8
0
  6
Continuous
 62
     7
370
    25
100
AcDbSpline
210
0.0
220
0.0
230
1.0
 70
     8
 71
     3
 72
    19
 73
    15
 74
     0
 42
0.000000001
 43
0.00000001
 40
0.0
 40
0.0
 40
0.0
 40
0.0
 40
0.0631632593634701
 40
0.1254749410306406
 40
0.1871212198160326
 40
0.2482943461142987
 40
0.3092948562551213
 40
0.3698500660670939
 40
0.4309733755473823
 40
0.4924559896728176
 40
0.6161479662918559
 40
0.7408436984673633
 40
0.8681826486700441
 40
0.9999999999999999
 40
0.9999999999999999
 40
0.9999999999999999
 40
0.9999999999999999
 10
-0.3197158746538604
 20
0.0641452091861275
 30
0.0
 10
-0.320487760022215
 20
0.0650651292582193
 30
0.0
 10
-0.3220211240704404
 20
0.066892566885122
 30
0.0
 10
-0.3244880218076018
 20
0.0694586906833456
 30
0.0
 10
-0.327058952630285
 20
0.0718628348338463
 30
0.0
 10
-0.3297329337805209
 20
0.0741164521420712
 30
0.0
 10
-0.3325580959650467
 20
0.0761407342576126
 30
0.0
 10
-0.3354660014243348
 20
0.0780411713813499
 30
0.0
 10
-0.3385052945427041
 20
0.0797446256310556
 30
0.0
 10
-0.3427081187413432
 20
0.0818100975253842
 30
0.0
 10
-0.3482060655240349
 20
0.083965457958936
 30
0.0
 10
-0.3551271221804568
 20
0.0857726717896526
 30
0.0
 10
-0.3623519685774928
 20
0.0869231117772237
 30
0.0
 10
-0.367281007932886
 20
0.0870477118346712
 30
0.0
 10
-0.3697881162246256
 20
0.0871110884512194
 30
0.0
  0
SPLINE
  5
10D
330
1B
100
AcDbEntity
 67
     1
  8
0
  6
Continuous
 62
     7
370
    25
100
AcDbSpline
210
0.0
220
0.0
230
1.0
 70
     8
 71
     3
 72
    23
 73
    19
 74
     0
 42
0.000000001
 43
0.00000001
 40
0.0
 40
0.0
 40
0.0
 40
0.0
 40
0.0685475367089032
 40
0.1356829456230481
 40
0.2012149895263284
 40
0.265682234754696
 40
0.3292668348172589
 40
0.3923954278443282
 40
0.4550697616521435
 40
0.5171268500645064
 40
0.5787900352866524
 40
0.6397398633435415
 40
0.7001915036663081
 40
0.7598062425966705
 40
0.819628319275008
 40
0.8793547910462762
 40
0.9395116077646612
 40
1.0
 40
1.0
 40
1.0
 40
1.0
 10
-0.3690152260570504
 20
0.1012439372297375
 30
0.0
 10
-0.3674319791300265
 20
0.1012249554111994
 30
0.0
 10
-0.3642981012837734
 20
0.1011873828130261
 30
0.0
 10
-0.3596621700864364
 20
0.100820999265206
 30
0.0
 10
-0.3551486926477267
 20
0.1002102273665004
 30
0.0
 10
-0.3507545594967681
 20
0.0993788860352756
 30
0.0
 10
-0.3464583935045277
 20
0.0983471017254497
 30
0.0
 10
-0.3422930296904108
 20
0.0970029954925132
 30
0.0
 10
-0.3382340262705448
 20
0.0954661241808753
 30
0.0
 10
-0.3343069826415515
 20
0.0936961058368638
 30
0.0
 10
-0.3305307405100426
 20
0.091709226253917
 30
0.0
 10
-0.3269064760017251
 20
0.0895275087914641
 30
0.0
 10
-0.3234629776274079
 20
0.0871536581810533
 30
0.0
 10
-0.3201760150905356
 20
0.0846078638735872
 30
0.0
 10
-0.3171005737095883
 20
0.0818362670509332
 30
0.0
 10
-0.314149334397179
 20
0.0789151018551195
 30
0.0
 10
-0.3114225202963283
 20
0.0757602268882953
 30
0.0
 10
-0.3097393236430167
 20
0.073539560198967
 30
0.0
 10
-0.3088954123078075
 20
0.0724261752672904
 30
0.0
  0
CIRCLE
  5
10E
330
1B
100
AcDbEntity
 67
     1
  8
0
  6
Continuous
 62
     7
370
    25
100
AcDbCircle
 10
-1.25
 20
-0.5
 30
0.0
 40
0.1874999999999996
  0
CIRCLE
  5
10F
330
1B
100
AcDbEntity
 67
     1
  8
0
  6
Continuous
 62
     7
370
    25
100
AcDbCircle
 10
1.25
 20
-0.5
 30
0.0
 40
0.1874999999999993
  0
CIRCLE
  5
110
330
1B
100
AcDbEntity
 67
     1
  8
0
  6
Continuous
 62
     7
370
    25
100
AcDbCircle
 10
1.25
 20
0.5
 30
0.0
 40
0.1874999999999993
  0
CIRCLE
  5
111
330
1B
100
AcDbEntity
 67
     1
  8
0
  6
Continuous
 62
     7
370
    25
100
AcDbCircle
 10
-1.25
 20
0.5
 30
0.0
 40
0.1874999999999998
  0
SPLINE
  5
122
330
1B
100
AcDbEntity
 67
     1
  8
0
  6
Continuous
 62
     7
370
    25
100
AcDbSpline
210
0.0
220
0.0
230
1.0
 70
     8
 71
     3
 72
    23
 73
    19
 74
     0
 42
0.000000001
 43
0.00000001
 40
0.0
 40
0.0
 40
0.0
 40
0.0
 40
0.0787802355821394
 40
0.1537206442085843
 40
0.226713530308781
 40
0.2991911660659364
 40
0.3711899968376686
 40
0.4430064143534095
 40
0.5166891732948802
 40
0.593217216623412
 40
0.6338729178078458
 40
0.6769891422899791
 40
0.7228995063258269
 40
0.7719586105061443
 40
0.8242113233348358
 40
0.879378650627202
 40
0.9379481193304179
 40
1.0
 40
1.0
 40
1.0
 40
1.0
 10
-0.1940660159823483
 20
0.0608604259739329
 30
0.0
 10
-0.194123850553549
 20
0.0590243982333446
 30
0.0
 10
-0.1942367007814876
 20
0.0554418325684603
 30
0.0
 10
-0.1952888702177088
 20
0.0502425852689022
 30
0.0
 10
-0.1970123552464
 20
0.045392612251562
 30
0.0
 10
-0.1993872878845619
 20
0.0408980202076459
 30
0.0
 10
-0.2024116766921794
 20
0.0368464199966172
 30
0.0
 10
-0.2060465109875871
 20
0.0332877406539447
 30
0.0
 10
-0.2102938185265506
 20
0.0303097913393457
 30
0.0
 10
-0.2142477286028964
 20
0.0282447202881055
 30
0.0
 10
-0.2177404136303228
 20
0.0269221648304379
 30
0.0
 10
-0.2206157409054421
 20
0.0259915995210269
 30
0.0
 10
-0.2237522360824428
 20
0.0252726245101182
 30
0.0
 10
-0.2271198476810997
 20
0.024628524834111
 30
0.0
 10
-0.2307325900233083
 20
0.024142237652555
 30
0.0
 10
-0.2345818041724897
 20
0.0237860725159662
 30
0.0
 10
-0.2386702353390286
 20
0.0235634721735141
 30
0.0
 10
-0.2414788601167114
 20
0.0235303223747369
 30
0.0
 10
-0.2429237158612095
 20
0.0235132689478881
 30
0.0
  0
SPLINE
  5
123
330
1B
100
AcDbEntity
 67
     1
  8
0
  6
Continuous
 62
     7
370
    25
100
AcDbSpline
210
0.0
220
0.0
230
1.0
 70
     8
 71
     3
 72
    23
 73
    19
 74
     0
 42
0.000000001
 43
0.00000001
 40
0.0
 40
0.0
 40
0.0
 40
0.0
 40
0.0642168426314302
 40
0.1270637656931292
 40
0.18874453834783
 40
0.2491321028350409
 40
0.3094525327106281
 40
0.369826676247682
 40
0.4306501418384683
 40
0.4923519318794693
 40
0.554072106262517
 40
0.6156897837449749
 40
0.6767977025065386
 40
0.7384390482469418
 40
0.8013169100648931
 40
0.8651845117115416
 40
0.9316413244190757
 40
1.0
 40
1.0
 40
1.0
 40
1.0
 10
-0.2218348555745146
 20
0.095833706056711
 30
0.0
 10
-0.2208267207659777
 20
0.095584620806098
 30
0.0
 10
-0.2188319574009486
 20
0.0950917639694087
 30
0.0
 10
-0.2159599075568583
 20
0.0940500474015488
 30
0.0
 10
-0.2132231231493096
 20
0.0928445503690801
 30
0.0
 10
-0.2106329725854625
 20
0.0914286558683684
 30
0.0
 10
-0.20820242962521
 20
0.0897918535190563
 30
0.0
 10
-0.2059064331372308
 20
0.0879623998798772
 30
0.0
 10
-0.2037345645002241
 20
0.0859503051645044
 30
0.0
 10
-0.20177465780021
 20
0.0837048389636122
 30
0.0
 10
-0.1999266636390072
 20
0.0813490708659746
 30
0.0
 10
-0.1983680562964648
 20
0.0788016788643534
 30
0.0
 10
-0.197024494102666
 20
0.0761378391980534
 30
0.0
 10
-0.1959547887089594
 20
0.0733304605462629
 30
0.0
 10
-0.1950934511706461
 20
0.0704067687406479
 30
0.0
 10
-0.1944861189119474
 20
0.0673402806805217
 30
0.0
 10
-0.1941218989264826
 20
0.0641449667008401
 30
0.0
 10
-0.1940848179991787
 20
0.0619655214728238
 30
0.0
 10
-0.1940660159823482
 20
0.0608604259739329
 30
0.0
  0
SPLINE
  5
124
330
1B
100
AcDbEntity
 67
     1
  8
0
  6
Continuous
 62
     7
370
    25
100
AcDbSpline
210
0.0
220
0.0
230
1.0
 70
     8
 71
     3
 72
    15
 73
    11
 74
     0
 42
0.000000001
 43
0.00000001
 40
0.0
 40
0.0
 40
0.0
 40
0.0
 40
0.1762577548178006
 40
0.3384344138804758
 40
0.4848220507878366
 40
0.6171575782663319
 40
0.734698360612477
 40
0.8373851838323608
 40
0.926372420929584
 40
1.0
 40
1.0
 40
1.0
 40
1.0
 10
-0.2530540977004989
 20
0.0977107250351079
 30
0.0
 10
-0.2512138957905154
 20
0.0977045996025081
 30
0.0
 10
-0.2476805042783476
 20
0.0976928380933829
 30
0.0
 10
-0.242618564500409
 20
0.0976272568765268
 30
0.0
 10
-0.2380190724925275
 20
0.0974392901163602
 30
0.0
 10
-0.233884433149333
 20
0.0972775348613554
 30
0.0
 10
-0.2302147223234944
 20
0.0969825765415467
 30
0.0
 10
-0.2269986872546774
 20
0.0967006613006094
 30
0.0
 10
-0.2242511401089604
 20
0.0963316195376587
 30
0.0
 10
-0.222587917616733
 20
0.0959888863500354
 30
0.0
 10
-0.2218348555745146
 20
0.095833706056711
 30
0.0
  0
SPLINE
  5
12D
330
1B
100
AcDbEntity
 67
     1
  8
0
  6
Continuous
 62
     7
370
    25
100
AcDbSpline
210
0.0
220
0.0
230
1.0
 70
     8
 71
     3
 72
    23
 73
    19
 74
     0
 42
0.000000001
 43
0.00000001
 40
0.0
 40
0.0
 40
0.0
 40
0.0
 40
0.0619654006870625
 40
0.1221219056382957
 40
0.1809884968498415
 40
0.2399332164519025
 40
0.2999058311065245
 40
0.3599888474769871
 40
0.4217757417416465
 40
0.4865758264211276
 40
0.5515348046197428
 40
0.615017542759981
 40
0.6772586166616574
 40
0.7397299623627148
 40
0.8030501026629525
 40
0.8664951320156992
 40
0.9319734741771512
 40
1.0
 40
1.0
 40
1.0
 40
1.0
 10
0.2281528412758792
 20
0.0591766295374298
 30
0.0
 10
0.2281278120514926
 20
0.0601168420732884
 30
0.0
 10
0.2280784842565483
 20
0.0619698204339698
 30
0.0
 10
0.2276431418355323
 20
0.0646865826000571
 30
0.0
 10
0.2269852478948037
 20
0.0673072445613087
 30
0.0
 10
0.2260425212000032
 20
0.0698398673612235
 30
0.0
 10
0.2247981613541237
 20
0.0722589875213093
 30
0.0
 10
0.2232834613573679
 20
0.0745675497340495
 30
0.0
 10
0.2215358210653261
 20
0.0767993987576747
 30
0.0
 10
0.2195141175483625
 20
0.0788920482875201
 30
0.0
 10
0.2172931915717255
 20
0.0808086311805305
 30
0.0
 10
0.2149469612730943
 20
0.0825064298188914
 30
0.0
 10
0.2124646737038066
 20
0.0839252924487663
 30
0.0
 10
0.2098567948779868
 20
0.0850884222590193
 30
0.0
 10
0.2071305952949807
 20
0.0860008388415524
 30
0.0
 10
0.2042808021799259
 20
0.0866330663778952
 30
0.0
 10
0.2013152897278589
 20
0.0870300145647706
 30
0.0
 10
0.1992903489526368
 20
0.0870837221202181
 30
0.0
 10
0.198258553722881
 20
0.0871110884512194
 30
0.0
  0
SPLINE
  5
12E
330
1B
100
AcDbEntity
 67
     1
  8
0
  6
Continuous
 62
     7
370
    25
100
AcDbSpline
210
0.0
220
0.0
230
1.0
 70
     8
 71
     3
 72
    19
 73
    15
 74
     0
 42
0.000000001
 43
0.00000001
 40
0.0
 40
0.0
 40
0.0
 40
0.0
 40
0.1108026438013196
 40
0.2128292023477697
 40
0.3061013098231107
 40
0.3906473211160095
 40
0.4669244693608519
 40
0.5344810392840313
 40
0.593586940965672
 40
0.6445570045087168
 40
0.7362004526293726
 40
0.8250240256188645
 40
0.9119855848297583
 40
1.0
 40
1.0
 40
1.0
 40
1.0
 10
0.2020954013404865
 20
0.0169437025234988
 30
0.0
 10
0.2033964992463075
 20
0.0183019035687196
 30
0.0
 10
0.2058956420462644
 20
0.0209107298129793
 30
0.0
 10
0.2094303891647367
 20
0.0247195077710117
 30
0.0
 10
0.2126051524841228
 20
0.0282529542573156
 30
0.0
 10
0.2154404829082102
 20
0.0315043931724528
 30
0.0
 10
0.2178748728832427
 20
0.034521384030544
 30
0.0
 10
0.220035196975675
 20
0.0372062148804555
 30
0.0
 10
0.2217661257544966
 20
0.0396768625303732
 30
0.0
 10
0.2236446846398379
 20
0.0425406662277169
 30
0.0
 10
0.2254641327263822
 20
0.0460372141479553
 30
0.0
 10
0.22702761131065
 20
0.0503101940401225
 30
0.0
 10
0.2279809518007531
 20
0.0547089047753976
 30
0.0
 10
0.2280953154033446
 20
0.0576814259189909
 30
0.0
 10
0.2281528412758791
 20
0.0591766295374297
 30
0.0
  0
SPLINE
  5
134
330
1B
100
AcDbEntity
 67
     1
  8
0
  6
Continuous
 62
     7
370
    25
100
AcDbSpline
210
0.0
220
0.0
230
1.0
 70
     8
 71
     3
 72
    19
 73
    15
 74
     0
 42
0.000000001
 43
0.00000001
 40
0.0
 40
0.0
 40
0.0
 40
0.0
 40
0.0987021963061526
 40
0.1956723088106642
 40
0.2924224265079543
 40
0.3913425437998245
 40
0.4444624406718922
 40
0.504228775449316
 40
0.5703523379946781
 40
0.6425457530977482
 40
0.722287505344018
 40
0.8079211226827112
 40
0.9004695379850143
 40
1.0
 40
1.0
 40
1.0
 40
1.0
 10
0.2405190839570824
 20
0.0602807583482515
 30
0.0
 10
0.240452420065095
 20
0.0583615522626284
 30
0.0
 10
0.2403202621380412
 20
0.0545568194409543
 30
0.0
 10
0.2391897748716073
 20
0.0489656831122461
 30
0.0
 10
0.237424164198558
 20
0.0435486193686763
 30
0.0
 10
0.2352982840076389
 20
0.039188883066139
 30
0.0
 10
0.2331536995957617
 20
0.0356757533906654
 30
0.0
 10
0.2312211205566418
 20
0.0327832846930377
 30
0.0
 10
0.2289587264219249
 20
0.02966889617377
 30
0.0
 10
0.2263335887068584
 20
0.0263430167495987
 30
0.0
 10
0.2234000110631288
 20
0.0227795952890254
 30
0.0
 10
0.2201314219545998
 20
0.0189807844465684
 30
0.0
 10
0.2165045132135998
 20
0.0149858328788498
 30
0.0
 10
0.2139589029476809
 20
0.012257265895077
 30
0.0
 10
0.2126398314838339
 20
0.0108433908437088
 30
0.0
  0
SPLINE
  5
135
330
1B
100
AcDbEntity
 67
     1
  8
0
  6
Continuous
 62
     7
370
    25
100
AcDbSpline
210
0.0
220
0.0
230
1.0
 70
     8
 71
     3
 72
    23
 73
    19
 74
     0
 42
0.000000001
 43
0.00000001
 40
0.0
 40
0.0
 40
0.0
 40
0.0
 40
0.0694754602496705
 40
0.1365167976177981
 40
0.2007888236092601
 40
0.263829672855826
 40
0.3257350229654201
 40
0.3872906922152902
 40
0.4495092187626034
 40
0.5129678195454412
 40
0.5762752154930607
 40
0.6375801002639241
 40
0.6979026059171025
 40
0.7571720884269852
 40
0.8165985284886557
 40
0.8766531708928198
 40
0.9372896424102404
 40
1.0
 40
1.0
 40
1.0
 40
1.0
 10
0.1988934277891035
 20
0.1012439372297375
 30
0.0
 10
0.2004043755878178
 20
0.1012085649287363
 30
0.0
 10
0.2033733340388576
 20
0.1011390596208235
 30
0.0
 10
0.2077064842141681
 20
0.1005421687047908
 30
0.0
 10
0.2118315745473719
 20
0.0996073028923777
 30
0.0
 10
0.2157405417332738
 20
0.0982956723288622
 30
0.0
 10
0.2194021978187559
 20
0.0965325058960855
 30
0.0
 10
0.2228440499666436
 20
0.0944144925630874
 30
0.0
 10
0.2261070740135335
 20
0.091964892902766
 30
0.0
 10
0.2290443489588941
 20
0.089080884499286
 30
0.0
 10
0.2317415174327626
 20
0.0860020504650198
 30
0.0
 10
0.2340683778715133
 20
0.0827151251259587
 30
0.0
 10
0.2360610221027468
 20
0.079320271357651
 30
0.0
 10
0.2377219543815333
 20
0.0757916020040481
 30
0.0
 10
0.2389446370169322
 20
0.0720958922240209
 30
0.0
 10
0.2398729129236003
 20
0.0682869472322238
 30
0.0
 10
0.2403976142499031
 20
0.0643253404996819
 30
0.0
 10
0.2404781427340704
 20
0.0616439800411093
 30
0.0
 10
0.2405190839570824
 20
0.0602807583482515
 30
0.0
  0
SPLINE
  5
136
330
1B
100
AcDbEntity
 67
     1
  8
0
  6
Continuous
 62
     7
370
    25
100
AcDbSpline
210
0.0
220
0.0
230
1.0
 70
     8
 71
     3
 72
    23
 73
    19
 74
     0
 42
0.000000001
 43
0.00000001
 40
0.0
 40
0.0
 40
0.0
 40
0.0
 40
0.0687907943906182
 40
0.1351032894311276
 40
0.1989786743106511
 40
0.2619042997808561
 40
0.3234949693679694
 40
0.3851953779660511
 40
0.4469692387407743
 40
0.5097647767031317
 40
0.5722505688473689
 40
0.6334051756611524
 40
0.6932511629217518
 40
0.7525831627856703
 40
0.8125792661534215
 40
0.8732750849201915
 40
0.9355499428950295
 40
1.0
 40
1.0
 40
1.0
 40
1.0
 10
0.1539553851886593
 20
0.0553121786995537
 30
0.0
 10
0.1540359817637747
 20
0.0569527648321441
 30
0.0
 10
0.1541942712923581
 20
0.0601748323350931
 30
0.0
 10
0.1549355425231352
 20
0.0648726239256084
 30
0.0
 10
0.1559962069800197
 20
0.0693629703320991
 30
0.0
 10
0.1574958705239098
 20
0.0736098173387785
 30
0.0
 10
0.1593583224046091
 20
0.0776507152612322
 30
0.0
 10
0.1615917880495261
 20
0.0814696135167946
 30
0.0
 10
0.1642372152350941
 20
0.085051943781149
 30
0.0
 10
0.1672374803549926
 20
0.0883644966667975
 30
0.0
 10
0.170496088191804
 20
0.0914033774069287
 30
0.0
 10
0.1740120700607424
 20
0.0940275995646519
 30
0.0
 10
0.1777067561743765
 20
0.0962448307206351
 30
0.0
 10
0.1815689372360061
 20
0.0980984229184242
 30
0.0
 10
0.185642187769843
 20
0.0994897554350592
 30
0.0
 10
0.1898895443776951
 20
0.1005221034509882
 30
0.0
 10
0.1943296678583816
 20
0.1011432194242785
 30
0.0
 10
0.1973548655767648
 20
0.1012099826370461
 30
0.0
 10
0.1988934277891035
 20
0.1012439372297375
 30
0.0
  0
SPLINE
  5
138
330
1B
100
AcDbEntity
 67
     1
  8
0
  6
Continuous
 62
     7
370
    25
100
AcDbSpline
210
0.0
220
0.0
230
1.0
 70
     8
 71
     3
 72
    23
 73
    19
 74
     0
 42
0.000000001
 43
0.00000001
 40
0.0
 40
0.0
 40
0.0
 40
0.0
 40
0.0644386715952452
 40
0.1265469112716776
 40
0.1868871534365717
 40
0.245877535589456
 40
0.3040408846912677
 40
0.3621912180726622
 40
0.4209759327916455
 40
0.4806602832796669
 40
0.5406002749537577
 40
0.6006890983494532
 40
0.661935789757196
 40
0.724442505913983
 40
0.7890383938817435
 40
0.8563137570509943
 40
0.9263520282058634
 40
1.0
 40
1.0
 40
1.0
 40
1.0
 10
0.198258553722881
 20
0.0871110884512194
 30
0.0
 10
0.1971809618820809
 20
0.0870829375746866
 30
0.0
 10
0.1950647494324919
 20
0.0870276539012865
 30
0.0
 10
0.1919577008916832
 20
0.0866409348464823
 30
0.0
 10
0.1889936939025547
 20
0.0859737757757368
 30
0.0
 10
0.1861652725264556
 20
0.085061308280185
 30
0.0
 10
0.1834676510377657
 20
0.0839015228934792
 30
0.0
 10
0.1809139485166111
 20
0.0824569660163624
 30
0.0
 10
0.1785098977583466
 20
0.0807332064434275
 30
0.0
 10
0.1762509795163981
 20
0.0787788538322448
 30
0.0
 10
0.1741697204981484
 20
0.076602964020594
 30
0.0
 10
0.1723411033381123
 20
0.0741773749234702
 30
0.0
 10
0.1707433075056856
 20
0.071546374318309
 30
0.0
 10
0.1693492431954574
 20
0.0687170613037677
 30
0.0
 10
0.1682171294126713
 20
0.0656637628791807
 30
0.0
 10
0.1673520447500295
 20
0.0623973178064071
 30
0.0
 10
0.1666675232255564
 20
0.058931909088354
 30
0.0
 10
0.1664388413119797
 20
0.0565387955113236
 30
0.0
 10
0.1663216278698626
 20
0.0553121786995537
 30
0.0
  0
SPLINE
  5
139
330
1B
100
AcDbEntity
 67
     1
  8
0
  6
Continuous
 62
     7
370
    25
100
AcDbSpline
210
0.0
220
0.0
230
1.0
 70
     8
 71
     3
 72
    31
 73
    27
 74
     0
 42
0.000000001
 43
0.00000001
 40
0.0
 40
0.0
 40
0.0
 40
0.0
 40
0.0650632896172791
 40
0.1267731664665229
 40
0.1855157632260791
 40
0.2407646791677151
 40
0.2929797960235982
 40
0.3422503727797675
 40
0.3889192861856605
 40
0.4327756640583104
 40
0.4746284326311181
 40
0.5147746906379539
 40
0.5536058934984427
 40
0.5914264064311728
 40
0.6280281199460673
 40
0.6638036341103203
 40
0.6989843361316641
 40
0.7335914893067059
 40
0.7676284691511402
 40
0.8012083477865921
 40
0.8342638397266242
 40
0.8669806947287765
 40
0.899719741518161
 40
0.9327019124985388
 40
0.9661758834327498
 40
1.0
 40
1.0
 40
1.0
 40
1.0
 10
0.411879875396614
 20
0.0287578807992912
 30
0.0
 10
0.411854222461814
 20
0.0266506403291769
 30
0.0
 10
0.411804238764511
 20
0.0225447682087506
 30
0.0
 10
0.4115452345610575
 20
0.0165396117000975
 30
0.0
 10
0.4110350522311866
 20
0.0108703973970046
 30
0.0
 10
0.4103968637150928
 20
0.0055235287962676
 30
0.0
 10
0.4095129675350367
 20
0.0005212603382771
 30
0.0
 10
0.4084261499660887
 20
-0.004153717947861
 30
0.0
 10
0.4072194443431844
 20
-0.0085215947850825
 30
0.0
 10
0.4057298855199638
 20
-0.0125465873681517
 30
0.0
 10
0.4040995425929076
 20
-0.0162848441738521
 30
0.0
 10
0.4023257159718295
 20
-0.0197756767852575
 30
0.0
 10
0.4004253291180627
 20
-0.0230499402765819
 30
0.0
 10
0.3983549060864475
 20
-0.0260814263762338
 30
0.0
 10
0.3961480787952495
 20
-0.0288916097255593
 30
0.0
 10
0.3937576146695412
 20
-0.0314308862079032
 30
0.0
 10
0.3912508987206441
 20
-0.0337604402222002
 30
0.0
 10
0.3885968666011974
 20
-0.0358333389411828
 30
0.0
 10
0.3858247582849709
 20
-0.037647701328441
 30
0.0
 10
0.3829917237603688
 20
-0.0392702938633946
 30
0.0
 10
0.3800474960695311
 20
-0.0405786676842547
 30
0.0
 10
0.3770587971431724
 20
-0.0417020944944025
 30
0.0
 10
0.3739828772173867
 20
-0.042560380001731
 30
0.0
 10
0.37082357049733
 20
-0.0431538388804948
 30
0.0
 10
0.3675969470355707
 20
-0.0435700533865883
 30
0.0
 10
0.3654157830559937
 20
-0.0436018045627814
 30
0.0
 10
0.3643195268704683
 20
-0.0436177627500728
 30
0.0
  0
SPLINE
  5
13A
330
1B
100
AcDbEntity
 67
     1
  8
0
  6
Continuous
 62
     7
370
    25
100
AcDbSpline
210
0.0
220
0.0
230
1.0
 70
     8
 71
     3
 72
    31
 73
    27
 74
     0
 42
0.000000001
 43
0.00000001
 40
0.0
 40
0.0
 40
0.0
 40
0.0
 40
0.0337881161627101
 40
0.0671939323738796
 40
0.0998624108568249
 40
0.1325666121262584
 40
0.1651511732547857
 40
0.1979131873557923
 40
0.2313190035669615
 40
0.2650832782673733
 40
0.2992553087581148
 40
0.3343985665049782
 40
0.3699428235093072
 40
0.4062835607000606
 40
0.4440638196985081
 40
0.4829977068727753
 40
0.5233544466133042
 40
0.5655365896041491
 40
0.6096129240658194
 40
0.6563908113764172
 40
0.7058854949364571
 40
0.758324500261731
 40
0.81383178294115
 40
0.87279455903939
 40
0.934722229540074
 40
1.0
 40
1.0
 40
1.0
 40
1.0
 10
0.3643195268704683
 20
0.1012439372297375
 30
0.0
 10
0.3654154118501668
 20
0.1012247319078609
 30
0.0
 10
0.3675947822791308
 20
0.1011865385651727
 30
0.0
 10
0.3708168442966865
 20
0.1008194542134166
 30
0.0
 10
0.3739644695610407
 20
0.1002103548788916
 30
0.0
 10
0.3770242388013353
 20
0.0993473243835113
 30
0.0
 10
0.3800212855126651
 20
0.0982766284520379
 30
0.0
 10
0.3829321677034386
 20
0.096934615967425
 30
0.0
 10
0.3857749661932834
 20
0.095372455835753
 30
0.0
 10
0.3885045050720192
 20
0.0935368701150197
 30
0.0
 10
0.3911507497706839
 20
0.0914903238080606
 30
0.0
 10
0.3936487010687978
 20
0.0891768329102912
 30
0.0
 10
0.3959985863403513
 20
0.0866197573485331
 30
0.0
 10
0.3982298975760298
 20
0.0838464556207138
 30
0.0
 10
0.4002793305366302
 20
0.080803735745376
 30
0.0
 10
0.4022310404671589
 20
0.0775445188235592
 30
0.0
 10
0.4039779710144685
 20
0.0740118076112046
 30
0.0
 10
0.405660438541185
 20
0.0702645450977776
 30
0.0
 10
0.407112682113596
 20
0.0661990467195624
 30
0.0
 10
0.4084223768093564
 20
0.0618382293763305
 30
0.0
 10
0.4094806039186057
 20
0.0571305842246241
 30
0.0
 10
0.4103620713334932
 20
0.0521008107878088
 30
0.0
 10
0.4110449412526117
 20
0.046730437431897
 30
0.0
 10
0.4115422893659405
 20
0.0410309761912766
 30
0.0
 10
0.4118050092494575
 20
0.0349986773471519
 30
0.0
 10
0.4118544856749171
 20
0.0308743525763975
 30
0.0
 10
0.411879875396614
 20
0.0287578807992912
 30
0.0
  0
SPLINE
  5
13B
330
1B
100
AcDbEntity
 67
     1
  8
0
  6
Continuous
 62
     7
370
    25
100
AcDbSpline
210
0.0
220
0.0
230
1.0
 70
     8
 71
     3
 72
    31
 73
    27
 74
     0
 42
0.000000001
 43
0.00000001
 40
0.0
 40
0.0
 40
0.0
 40
0.0
 40
0.0685946222587425
 40
0.1332460424433009
 40
0.1943125864682562
 40
0.2512792231169663
 40
0.3045134392563465
 40
0.3542349066533249
 40
0.4004805887739887
 40
0.4434107549384916
 40
0.484014868616345
 40
0.5232523007732026
 40
0.5610423727283594
 40
0.5979002393643996
 40
0.6335184888561948
 40
0.6683143511696507
 40
0.7024956712863818
 40
0.7366853535134588
 40
0.7702931693607883
 40
0.8034372550192493
 40
0.8359129516660287
 40
0.86846024578929
 40
0.9008465382431824
 40
0.9334665246307078
 40
0.9662575752981233
 40
1.0
 40
1.0
 40
1.0
 40
1.0
 10
0.3182497522389318
 20
0.0287578807992912
 30
0.0
 10
0.3182626663396194
 20
0.0309664393715058
 30
0.0
 10
0.3182877521663459
 20
0.0352565962316423
 30
0.0
 10
0.318566823856985
 20
0.0415079600925399
 30
0.0
 10
0.319030420011047
 20
0.0473725383994366
 30
0.0
 10
0.3196657496508218
 20
0.0528506118655164
 30
0.0
 10
0.3204388984785221
 20
0.0579435947205444
 30
0.0
 10
0.3214710042502276
 20
0.062637876497564
 30
0.0
 10
0.3226447366366433
 20
0.066955183844535
 30
0.0
 10
0.3240050691488678
 20
0.0709095952018586
 30
0.0
 10
0.3255400214724249
 20
0.074554386659424
 30
0.0
 10
0.3272106616583328
 20
0.0779569536394934
 30
0.0
 10
0.3290832913600485
 20
0.0811121478260988
 30
0.0
 10
0.3310508863571787
 20
0.0840703285512934
 30
0.0
 10
0.3331930939015806
 20
0.0867830724407556
 30
0.0
 10
0.335448951793992
 20
0.0892886890753433
 30
0.0
 10
0.3379065059777372
 20
0.0915292698022648
 30
0.0
 10
0.3404822149648808
 20
0.0935704628095513
 30
0.0
 10
0.34319939860235
 20
0.0953598120879744
 30
0.0
 10
0.3459806059308226
 20
0.0969359041594609
 30
0.0
 10
0.3488449801771192
 20
0.0982823556262958
 30
0.0
 10
0.351800341708534
 20
0.0993410342034431
 30
0.0
 10
0.3548201274522222
 20
0.1002154769897664
 30
0.0
 10
0.3579148938573913
 20
0.100813467054592
 30
0.0
 10
0.3610897507052779
 20
0.1011897232943317
 30
0.0
 10
0.3632327205792208
 20
0.1012256944652056
 30
0.0
 10
0.3643195268704683
 20
0.1012439372297375
 30
0.0
  0
SPLINE
  5
13C
330
1B
100
AcDbEntity
 67
     1
  8
0
  6
Continuous
 62
     7
370
    25
100
AcDbSpline
210
0.0
220
0.0
230
1.0
 70
     8
 71
     3
 72
    31
 73
    27
 74
     0
 42
0.000000001
 43
0.00000001
 40
0.0
 40
0.0
 40
0.0
 40
0.0
 40
0.0337871463469909
 40
0.0666216577242938
 40
0.0992848780959724
 40
0.1313611650426513
 40
0.1635851875953433
 40
0.1961039269870678
 40
0.2289022543238165
 40
0.2621580559050072
 40
0.2959912222583165
 40
0.3302178457247997
 40
0.3650598258919537
 40
0.4009507373401078
 40
0.4376203820767375
 40
0.4757075294370918
 40
0.5153806916250483
 40
0.5564135414931646
 40
0.5997648298727314
 40
0.6464241555840872
 40
0.6964314445175667
 40
0.7497815178015576
 40
0.8065733069755324
 40
0.8674355315653995
 40
0.9318867532508741
 40
1.0
 40
1.0
 40
1.0
 40
1.0
 10
0.3643195268704683
 20
-0.0436177627500728
 30
0.0
 10
0.3632327507293166
 20
-0.0435994022989386
 30
0.0
 10
0.3610898403054775
 20
-0.043563199073056
 30
0.0
 10
0.3579145479653417
 20
-0.0431886427152533
 30
0.0
 10
0.354832562003139
 20
-0.0425864575494126
 30
0.0
 10
0.3518286740489026
 20
-0.0417432841599999
 30
0.0
 10
0.3488874726676551
 20
-0.0407112039901007
 30
0.0
 10
0.3460490361851435
 20
-0.0393665707773849
 30
0.0
 10
0.3432818045437785
 20
-0.0378179853854177
 30
0.0
 10
0.3405931606060587
 20
-0.0360543861161939
 30
0.0
 10
0.3380336267068528
 20
-0.0340338474103518
 30
0.0
 10
0.3355887997259929
 20
-0.0317990328951356
 30
0.0
 10
0.3333200981867422
 20
-0.0292941741826389
 30
0.0
 10
0.3312085196191307
 20
-0.0265588228791855
 30
0.0
 10
0.329201665753157
 20
-0.0236181440471874
 30
0.0
 10
0.3273556274335013
 20
-0.0204319876280763
 30
0.0
 10
0.3256481134938142
 20
-0.0170129872150997
 30
0.0
 10
0.3240873461446593
 20
-0.0133390537239541
 30
0.0
 10
0.3227035404944658
 20
-0.0093565762491593
 30
0.0
 10
0.3214811897813391
 20
-0.0050199944183527
 30
0.0
 10
0.320516065471494
 20
-0.0002910323666187
 30
0.0
 10
0.3196899648678373
 20
0.0047923285430421
 30
0.0
 10
0.3190236505747862
 20
0.0102519321015399
 30
0.0
 10
0.3185687558772125
 20
0.0160907422663782
 30
0.0
 10
0.3182876017419467
 20
0.0223051205705573
 30
0.0
 10
0.3182625989695008
 20
0.0265677101105812
 30
0.0
 10
0.3182497522389318
 20
0.0287578807992912
 30
0.0
  0
SPLINE
  5
13D
330
1B
100
AcDbEntity
 67
     1
  8
0
  6
Continuous
 62
     7
370
    25
100
AcDbSpline
210
0.0
220
0.0
230
1.0
 70
     8
 71
     3
 72
    15
 73
    11
 74
     0
 42
0.000000001
 43
0.00000001
 40
0.0
 40
0.0
 40
0.0
 40
0.0
 40
0.1105883385953353
 40
0.2245417540535956
 40
0.3425034940501039
 40
0.4643240984173577
 40
0.5907560327017664
 40
0.7222274753555143
 40
0.8588428362087241
 40
1.0
 40
1.0
 40
1.0
 40
1.0
 10
0.3942966240842782
 20
-0.0058289541996993
 30
0.0
 10
0.3947120480131665
 20
-0.0045994368978753
 30
0.0
 10
0.3955555367467278
 20
-0.0021029894867153
 30
0.0
 10
0.3966426144739226
 20
0.001769595240863
 30
0.0
 10
0.3974987325528081
 20
0.0058326961833014
 30
0.0
 10
0.3982689438027856
 20
0.0100620314871771
 30
0.0
 10
0.3987946546648862
 20
0.0144887913694993
 30
0.0
 10
0.3992177969201319
 20
0.0190992789252374
 30
0.0
 10
0.3994670365634099
 20
0.0238969703518298
 30
0.0
 10
0.3994979322748795
 20
0.0271566156744774
 30
0.0
 10
0.3995136327154107
 20
0.0288130872398323
 30
0.0
  0
SPLINE
  5
13E
330
1B
100
AcDbEntity
 67
     1
  8
0
  6
Continuous
 62
     7
370
    25
100
AcDbSpline
210
0.0
220
0.0
230
1.0
 70
     8
 71
     3
 72
    19
 73
    15
 74
     0
 42
0.000000001
 43
0.00000001
 40
0.0
 40
0.0
 40
0.0
 40
0.0
 40
0.1128134007444582
 40
0.2253938839207301
 40
0.3395948145627007
 40
0.4596754102248634
 40
0.5217351900879318
 40
0.5839258387389149
 40
0.6481741447653689
 40
0.7138810381130669
 40
0.7810044549073893
 40
0.8514509275565553
 40
0.9240506926641772
 40
1.0
 40
1.0
 40
1.0
 40
1.0
 10
0.3647335751745265
 20
-0.0294849139715547
 30
0.0
 10
0.3662594677593984
 20
-0.0294220092151945
 30
0.0
 10
0.3693081025304498
 20
-0.0292963295773185
 30
0.0
 10
0.3737621889534554
 20
-0.0280837808617979
 30
0.0
 10
0.3780862153346467
 20
-0.026254271434094
 30
0.0
 10
0.3814748744007446
 20
-0.0240909838191625
 30
0.0
 10
0.3840529272945018
 20
-0.022030813368325
 30
0.0
 10
0.3859000528892228
 20
-0.0202743311512812
 30
0.0
 10
0.3875954091267525
 20
-0.0183075647218946
 30
0.0
 10
0.3892033648296899
 20
-0.0161855451976855
 30
0.0
 10
0.3906781315885437
 20
-0.0138677308601349
 30
0.0
 10
0.392019200001741
 20
-0.0113652672669849
 30
0.0
 10
0.3932429538421015
 20
-0.0086712051444575
 30
0.0
 10
0.3939401603755762
 20
-0.0067905067540706
 30
0.0
 10
0.3942966240842782
 20
-0.0058289541996993
 30
0.0
  0
SPLINE
  5
13F
330
1B
100
AcDbEntity
 67
     1
  8
0
  6
Continuous
 62
     7
370
    25
100
AcDbSpline
210
0.0
220
0.0
230
1.0
 70
     8
 71
     3
 72
    27
 73
    23
 74
     0
 42
0.000000001
 43
0.00000001
 40
0.0
 40
0.0
 40
0.0
 40
0.0
 40
0.0729510658758665
 40
0.141583694186545
 40
0.2059264601708669
 40
0.2653013571846052
 40
0.320597232713928
 40
0.3718165030988102
 40
0.418789769709452
 40
0.4616987286157644
 40
0.5021335821035651
 40
0.5408043152926477
 40
0.5781805253279659
 40
0.6142968652075139
 40
0.6496782432647873
 40
0.6842994600896377
 40
0.7183589527723607
 40
0.7520808646475959
 40
0.8176524386023858
 40
0.8797220764054366
 40
0.9399655597309874
 40
1.0
 40
1.0
 40
1.0
 40
1.0
 10
0.3306159949201352
 20
0.0288130872398323
 30
0.0
 10
0.3306206975605885
 20
0.0269725872869247
 30
0.0
 10
0.3306298244622976
 20
0.0234005382790838
 30
0.0
 10
0.3308682575558888
 20
0.0182098587131019
 30
0.0
 10
0.3311930698393329
 20
0.0133685071848674
 30
0.0
 10
0.3316120185474095
 20
0.0088703364578937
 30
0.0
 10
0.3322341818752056
 20
0.0047305721858539
 30
0.0
 10
0.3329312995058231
 20
0.0009207421439195
 30
0.0
 10
0.3337796494908317
 20
-0.0025389916007184
 30
0.0
 10
0.3347833903517373
 20
-0.0056723699749125
 30
0.0
 10
0.3359266618829759
 20
-0.0085325695219736
 30
0.0
 10
0.337174924232191
 20
-0.0111940346844672
 30
0.0
 10
0.3385158975749041
 20
-0.0136882054102853
 30
0.0
 10
0.3400166515336829
 20
-0.0159926781809202
 30
0.0
 10
0.3416511028419112
 20
-0.0181149681050486
 30
0.0
 10
0.343382333516616
 20
-0.0200926386689183
 30
0.0
 10
0.3452749549434709
 20
-0.0218562993514221
 30
0.0
 10
0.3478932125239122
 20
-0.0239715298643935
 30
0.0
 10
0.3513497666352133
 20
-0.026157322530913
 30
0.0
 10
0.355704902667934
 20
-0.0280607118943632
 30
0.0
 10
0.3601800385333475
 20
-0.0292568715964227
 30
0.0
 10
0.3632174893241716
 20
-0.0294089879726087
 30
0.0
 10
0.3647335751745266
 20
-0.0294849139715547
 30
0.0
  0
SPLINE
  5
140
330
1B
100
AcDbEntity
 67
     1
  8
0
  6
Continuous
 62
     7
370
    25
100
AcDbSpline
210
0.0
220
0.0
230
1.0
 70
     8
 71
     3
 72
    27
 73
    23
 74
     0
 42
0.000000001
 43
0.00000001
 40
0.0
 40
0.0
 40
0.0
 40
0.0
 40
0.0603866193110622
 40
0.1208832485859964
 40
0.1827546186251393
 40
0.247811029758352
 40
0.2812991000432493
 40
0.3150876241506571
 40
0.3497023955502756
 40
0.3848565811185555
 40
0.4209661972261029
 40
0.4585111882611395
 40
0.4971747221273121
 40
0.5376020478662696
 40
0.5805030184200116
 40
0.6274675400267047
 40
0.6783882095592434
 40
0.7339832205925605
 40
0.793746704550835
 40
0.8577136721607321
 40
0.9266978643613859
 40
0.9999999999999999
 40
0.9999999999999999
 40
0.9999999999999999
 40
0.9999999999999999
 10
0.3647335751745265
 20
0.0871110884512194
 30
0.0
 10
0.3632095361159908
 20
0.0870311102367605
 30
0.0
 10
0.3601586815646085
 20
0.0868710081066829
 30
0.0
 10
0.3556528565753662
 20
0.0857413524534709
 30
0.0
 10
0.3513337876130708
 20
0.083772338046478
 30
0.0
 10
0.3478990248304389
 20
0.0816088588155758
 30
0.0
 10
0.3452665922907696
 20
0.0795482953729909
 30
0.0
 10
0.3434129429452283
 20
0.0777614271029728
 30
0.0
 10
0.341674904668941
 20
0.0758068501594636
 30
0.0
 10
0.3400738141123409
 20
0.0736650424881896
 30
0.0
 10
0.3385742360339051
 20
0.0713632563732635
 30
0.0
 10
0.3371970308143893
 20
0.0688833837462847
 30
0.0
 10
0.3359561910633637
 20
0.0662128575956784
 30
0.0
 10
0.3348111305838295
 20
0.0633539428154004
 30
0.0
 10
0.333804327905632
 20
0.0602208347667569
 30
0.0
 10
0.3329738569123252
 20
0.0567653625780379
 30
0.0
 10
0.3322066500965814
 20
0.0529676503028731
 30
0.0
 10
0.3316635292737246
 20
0.0488054649507003
 30
0.0
 10
0.3311807042437361
 20
0.044306167573959
 30
0.0
 10
0.330870414954277
 20
0.0394527298483946
 30
0.0
 10
0.3306290268649374
 20
0.0342533447931836
 30
0.0
 10
0.3306204259057737
 20
0.0306628267418983
 30
0.0
 10
0.3306159949201352
 20
0.0288130872398323
 30
0.0
  0
SPLINE
  5
141
330
1B
100
AcDbEntity
 67
     1
  8
0
  6
Continuous
 62
     7
370
    25
100
AcDbSpline
210
0.0
220
0.0
230
1.0
 70
     8
 71
     3
 72
    27
 73
    23
 74
     0
 42
0.000000001
 43
0.00000001
 40
0.0
 40
0.0
 40
0.0
 40
0.0
 40
0.0656811979906388
 40
0.128486464174065
 40
0.1881751303280079
 40
0.2451061306699863
 40
0.2994484245294757
 40
0.3508229360093824
 40
0.3999416805337782
 40
0.4466717436323723
 40
0.4912545333734986
 40
0.533376344270437
 40
0.5738527549682243
 40
0.6125263117194528
 40
0.6495971364453297
 40
0.6855320415538507
 40
0.7201057860682011
 40
0.7538376629736497
 40
0.8189254160467134
 40
0.8804934616501646
 40
0.9403113338460569
 40
1.0
 40
1.0
 40
1.0
 40
1.0
 10
0.3995136327154107
 20
0.0288130872398323
 30
0.0
 10
0.3994919717219881
 20
0.0304692908822749
 30
0.0
 10
0.3994495981883053
 20
0.033709179259463
 30
0.0
 10
0.3992876301685761
 20
0.0384539895217515
 30
0.0
 10
0.3988693792043239
 20
0.0429605942819543
 30
0.0
 10
0.3984048469655642
 20
0.0472484081663761
 30
0.0
 10
0.3977199170013083
 20
0.051293695674427
 30
0.0
 10
0.3969814206674385
 20
0.0551303218656205
 30
0.0
 10
0.3959892469552247
 20
0.0587107559136264
 30
0.0
 10
0.3949294132948317
 20
0.0620910544062093
 30
0.0
 10
0.3937164055967436
 20
0.0652328124574217
 30
0.0
 10
0.3923811404684931
 20
0.0681506780622231
 30
0.0
 10
0.3909550869736497
 20
0.0708587380920186
 30
0.0
 10
0.3894061798689543
 20
0.0733495625635349
 30
0.0
 10
0.3877528065199278
 20
0.0756343083474379
 30
0.0
 10
0.3859513282050631
 20
0.0776671664008661
 30
0.0
 10
0.38407320329125
 20
0.0795111415232496
 30
0.0
 10
0.3814426054241772
 20
0.0816159670792184
 30
0.0
 10
0.3779987357469962
 20
0.0837620968226497
 30
0.0
 10
0.3737134740406011
 20
0.0857371267384111
 30
0.0
 10
0.3692539998574856
 20
0.0868713114872657
 30
0.0
 10
0.3662392969404764
 20
0.0870312204257749
 30
0.0
 10
0.3647335751745266
 20
0.0871110884512194
 30
0.0
  0
SPLINE
  5
142
330
1B
100
AcDbEntity
 67
     1
  8
0
  6
Continuous
 62
     7
370
    25
100
AcDbSpline
210
0.0
220
0.0
230
1.0
 70
     8
 71
     3
 72
    19
 73
    15
 74
     0
 42
0.000000001
 43
0.00000001
 40
0.0
 40
0.0
 40
0.0
 40
0.0
 40
0.0896899362473912
 40
0.1784940104960767
 40
0.2668377532994862
 40
0.3565581760610155
 40
0.445334249654977
 40
0.5308058350374906
 40
0.6140762174402834
 40
0.6977070858228019
 40
0.7791419498114615
 40
0.855353590586975
 40
0.9285568200856551
 40
1.0
 40
1.0
 40
1.0
 40
1.0
 10
0.4715028311809872
 20
0.0429459360183504
 30
0.0
 10
0.4726740951099304
 20
0.042980300866754
 30
0.0
 10
0.4750050544658362
 20
0.0430486911440616
 30
0.0
 10
0.478441248622667
 20
0.0436845641267379
 30
0.0
 10
0.4817822976153526
 20
0.0446847971053171
 30
0.0
 10
0.4849924907035708
 20
0.0460532997163319
 30
0.0
 10
0.4879887342161691
 20
0.047770931993844
 30
0.0
 10
0.4906596030439523
 20
0.0498273500288599
 30
0.0
 10
0.4929823153606085
 20
0.0521750703912002
 30
0.0
 10
0.4949327330859496
 20
0.0547775442403896
 30
0.0
 10
0.4964449317642864
 20
0.0575472918096004
 30
0.0
 10
0.4976221682914991
 20
0.0603268308970081
 30
0.0
 10
0.4983096177151997
 20
0.0631458163689786
 30
0.0
 10
0.4983992857068277
 20
0.0650342795109952
 30
0.0
 10
0.4984435741650373
 20
0.0659670217239834
 30
0.0
  0
SPLINE
  5
143
330
1B
100
AcDbEntity
 67
     1
  8
0
  6
Continuous
 62
     7
370
    25
100
AcDbSpline
210
0.0
220
0.0
230
1.0
 70
     8
 71
     3
 72
    23
 73
    19
 74
     0
 42
0.000000001
 43
0.00000001
 40
0.0
 40
0.0
 40
0.0
 40
0.0
 40
0.0752433085911311
 40
0.1472088117202544
 40
0.2164470898547719
 40
0.2840250416193525
 40
0.3506554491966467
 40
0.4150313178410253
 40
0.4796298309645136
 40
0.5446516341371366
 40
0.6080442396977415
 40
0.6678275650288183
 40
0.7251142466493393
 40
0.7809917079106402
 40
0.8355270040618594
 40
0.8894381545415828
 40
0.9440720891799446
 40
1.0
 40
1.0
 40
1.0
 40
1.0
 10
0.4710059732161175
 20
0.0871110884512194
 30
0.0
 10
0.4700394060554325
 20
0.0870854411852622
 30
0.0
 10
0.4681483780579074
 20
0.08703526391879
 30
0.0
 10
0.4653755957304143
 20
0.086773112855875
 30
0.0
 10
0.4627388883560677
 20
0.0862631436912774
 30
0.0
 10
0.4602107072278953
 20
0.0855844542598157
 30
0.0
 10
0.4578257146207877
 20
0.0846676043332661
 30
0.0
 10
0.4555515195589077
 20
0.0835890606615795
 30
0.0
 10
0.4534268270468576
 20
0.0822777982405439
 30
0.0
 10
0.4514259883472267
 20
0.0808068849371409
 30
0.0
 10
0.4496247767520648
 20
0.0791890539890789
 30
0.0
 10
0.4480261723562918
 20
0.0775034745095247
 30
0.0
 10
0.4466982938445109
 20
0.0757170417513377
 30
0.0
 10
0.44557069110915
 20
0.0738741929433378
 30
0.0
 10
0.4447525211297604
 20
0.071920233248074
 30
0.0
 10
0.444139753260253
 20
0.0699150688227691
 30
0.0
 10
0.4437255252487122
 20
0.0678333607886479
 30
0.0
 10
0.4436944862714427
 20
0.0664106635232298
 30
0.0
 10
0.4436787851482797
 20
0.0656909895212779
 30
0.0
  0
SPLINE
  5
144
330
1B
100
AcDbEntity
 67
     1
  8
0
  6
Continuous
 62
     7
370
    25
100
AcDbSpline
210
0.0
220
0.0
230
1.0
 70
     8
 71
     3
 72
    23
 73
    19
 74
     0
 42
0.000000001
 43
0.00000001
 40
0.0
 40
0.0
 40
0.0
 40
0.0
 40
0.0509024376836551
 40
0.1010340427826156
 40
0.1510838170086599
 40
0.2030619875551397
 40
0.2562484343627556
 40
0.3108467145046032
 40
0.3687690999693274
 40
0.4300150403860066
 40
0.4925196472738504
 40
0.5560487215256787
 40
0.6219956829149521
 40
0.690192369082954
 40
0.7613848549885003
 40
0.8363562199507247
 40
0.9154870053271097
 40
1.0
 40
1.0
 40
1.0
 40
1.0
 10
0.4984435741650374
 20
0.0659670217239834
 30
0.0
 10
0.4984226333154234
 20
0.0666216688073894
 30
0.0
 10
0.4983810687304628
 20
0.0679210494351584
 30
0.0
 10
0.4980385468423518
 20
0.0698398827161454
 30
0.0
 10
0.4974725691649614
 20
0.0717150631697957
 30
0.0
 10
0.4967063061700465
 20
0.0735620817015982
 30
0.0
 10
0.4956980465333762
 20
0.0753550239097114
 30
0.0
 10
0.4945026060818274
 20
0.0771220746187453
 30
0.0
 10
0.4930504603572025
 20
0.0788234826423104
 30
0.0
 10
0.4914206795150678
 20
0.0804988979381362
 30
0.0
 10
0.4895724350804998
 20
0.0820494500511892
 30
0.0
 10
0.4875092889273658
 20
0.0834130213200303
 30
0.0
 10
0.4852418184399494
 20
0.0845709881134516
 30
0.0
 10
0.4827699700156695
 20
0.0855114902700627
 30
0.0
 10
0.4801028470196007
 20
0.0862178819881482
 30
0.0
 10
0.4772527338524095
 20
0.0867468720582315
 30
0.0
 10
0.4741958658617982
 20
0.0870450260522807
 30
0.0
 10
0.4720923323553081
 20
0.0870885900480392
 30
0.0
 10
0.4710059732161175
 20
0.0871110884512194
 30
0.0
  0
SPLINE
  5
145
330
1B
100
AcDbEntity
 67
     1
  8
0
  6
Continuous
 62
     7
370
    25
100
AcDbSpline
210
0.0
220
0.0
230
1.0
 70
     8
 71
     3
 72
    23
 73
    19
 74
     0
 42
0.000000001
 43
0.00000001
 40
0.0
 40
0.0
 40
0.0
 40
0.0
 40
0.0545639495070587
 40
0.1078262027811422
 40
0.1619237085214013
 40
0.217509701053039
 40
0.2744983327961391
 40
0.3348147646240164
 40
0.3975549470643502
 40
0.4647545773562001
 40
0.5329012097695235
 40
0.6000972138233261
 40
0.6653541614565441
 40
0.7310836277242078
 40
0.796883493959006
 40
0.8632915901470206
 40
0.9308312175092469
 40
1.0
 40
1.0
 40
1.0
 40
1.0
 10
0.4436787851482797
 20
0.0656909895212779
 30
0.0
 10
0.4437058468377458
 20
0.0649712844218701
 30
0.0
 10
0.443759324623763
 20
0.0635490437539483
 30
0.0
 10
0.4441729123412294
 20
0.061448812809718
 30
0.0
 10
0.4447893239472323
 20
0.0593849688438116
 30
0.0
 10
0.445759822428575
 20
0.0574065865187579
 30
0.0
 10
0.4469238522841162
 20
0.0554450369444184
 30
0.0
 10
0.4483605245699249
 20
0.0535493445816539
 30
0.0
 10
0.4500726910226363
 20
0.0517129121067357
 30
0.0
 10
0.4520029052068518
 20
0.0499513593032226
 30
0.0
 10
0.4541057216568036
 20
0.0483018017012631
 30
0.0
 10
0.4563334398942803
 20
0.0468697866816302
 30
0.0
 10
0.4586581009718565
 20
0.0456715933555988
 30
0.0
 10
0.4610558202319364
 20
0.0446743726951858
 30
0.0
 10
0.4635510346964821
 20
0.0438991783116036
 30
0.0
 10
0.4661284549111256
 20
0.043349231601428
 30
0.0
 10
0.4687885140581323
 20
0.0430074207027883
 30
0.0
 10
0.4705908991279785
 20
0.0429665930941342
 30
0.0
 10
0.4715028311809872
 20
0.0429459360183504
 30
0.0
  0
SPLINE
  5
149
330
1B
100
AcDbEntity
 67
     1
  8
0
  6
Continuous
 62
     7
370
    25
100
AcDbSpline
210
0.0
220
0.0
230
1.0
 70
     8
 71
     3
 72
    23
 73
    19
 74
     0
 42
0.000000001
 43
0.00000001
 40
0.0
 40
0.0
 40
0.0
 40
0.0
 40
0.0700437554181557
 40
0.1392383167626456
 40
0.2081974550441379
 40
0.2791733744245674
 40
0.3499868116864772
 40
0.4183538456626554
 40
0.4876095837571503
 40
0.5574110731083887
 40
0.5953301567632407
 40
0.6379640515652197
 40
0.6859127777112936
 40
0.7381851646524784
 40
0.7961026471849421
 40
0.8585165439469267
 40
0.9266577264685197
 40
1.0
 40
1.0
 40
1.0
 40
1.0
 10
-0.0916028623380922
 20
0.0606948066523096
 30
0.0
 10
-0.0916525728300424
 20
0.0618026221424222
 30
0.0
 10
-0.0917513911355896
 20
0.0640048222272978
 30
0.0
 10
-0.092485873937191
 20
0.0672323324875229
 30
0.0
 10
-0.0937200988924484
 20
0.0703124783295224
 30
0.0
 10
-0.0954309884402771
 20
0.0731854344457988
 30
0.0
 10
-0.0975074108796721
 20
0.0757912928696276
 30
0.0
 10
-0.0999207708445533
 20
0.0780549592894253
 30
0.0
 10
-0.1026653874324932
 20
0.0798747113654534
 30
0.0
 10
-0.1052184673944119
 20
0.0810492500130392
 30
0.0
 10
-0.1074862306238391
 20
0.0817663868411158
 30
0.0
 10
-0.1094559928239882
 20
0.0822681522134478
 30
0.0
 10
-0.1116800351266002
 20
0.0826687666325396
 30
0.0
 10
-0.114159081564016
 20
0.0829931565064053
 30
0.0
 10
-0.1168739175435596
 20
0.0832708518301598
 30
0.0
 10
-0.1198478669488595
 20
0.0834592761307106
 30
0.0
 10
-0.1230696639277739
 20
0.0835695696833302
 30
0.0
 10
-0.1253063005760002
 20
0.083575040362727
 30
0.0
 10
-0.1264657295397882
 20
0.0835778762565899
 30
0.0
  0
SPLINE
  5
14A
330
1B
100
AcDbEntity
 67
     1
  8
0
  6
Continuous
 62
     7
370
    25
100
AcDbSpline
210
0.0
220
0.0
230
1.0
 70
     8
 71
     3
 72
    23
 73
    19
 74
     0
 42
0.000000001
 43
0.00000001
 40
0.0
 40
0.0
 40
0.0
 40
0.0
 40
0.0725383714064942
 40
0.1400338305012514
 40
0.2024956806336242
 40
0.260575055669416
 40
0.3132283378464658
 40
0.3615831937532658
 40
0.4048783612951279
 40
0.4441274373055405
 40
0.5163996933371992
 40
0.5865066709977663
 40
0.6550853737960486
 40
0.7243837831470363
 40
0.7939735287256631
 40
0.8616376821817772
 40
0.9301109423064039
 40
0.9999999999999999
 40
0.9999999999999999
 40
0.9999999999999999
 40
0.9999999999999999
 10
-0.1275422551303393
 20
0.0373424823034302
 30
0.0
 10
-0.1263643052951874
 20
0.0373418735006293
 30
0.0
 10
-0.1240902974238187
 20
0.0373406982193737
 30
0.0
 10
-0.1208054067453447
 20
0.037497596781548
 30
0.0
 10
-0.1177577970090041
 20
0.0376787201147918
 30
0.0
 10
-0.1149568294746213
 20
0.0379439139518785
 30
0.0
 10
-0.1124012415028374
 20
0.0383187666087362
 30
0.0
 10
-0.1100867718621109
 20
0.0386971814874035
 30
0.0
 10
-0.1080313670237289
 20
0.039244636707818
 30
0.0
 10
-0.1056258866392466
 20
0.0399817654140827
 30
0.0
 10
-0.102945439888192
 20
0.0412389550070349
 30
0.0
 10
-0.1000293946707436
 20
0.0430637538280417
 30
0.0
 10
-0.0975581117435281
 20
0.0453897659619039
 30
0.0
 10
-0.0954195961229941
 20
0.0480050349117662
 30
0.0
 10
-0.0937225143143957
 20
0.0509144494560991
 30
0.0
 10
-0.0924801524121722
 20
0.0540273997209033
 30
0.0
 10
-0.0917501855868357
 20
0.0573119607256948
 30
0.0
 10
-0.0916523039468486
 20
0.0595595252475521
 30
0.0
 10
-0.0916028623380922
 20
0.0606948066523096
 30
0.0
  0
SPLINE
  5
14B
330
1B
100
AcDbEntity
 67
     1
  8
0
  6
Continuous
 62
     7
370
    25
100
AcDbSpline
210
0.0
220
0.0
230
1.0
 70
     8
 71
     3
 72
    23
 73
    19
 74
     0
 42
0.000000001
 43
0.00000001
 40
0.0
 40
0.0
 40
0.0
 40
0.0
 40
0.071268692586561
 40
0.1398117850281246
 40
0.2064974320993708
 40
0.2715352442755384
 40
0.3360818306156441
 40
0.4005283877476343
 40
0.4649838426509134
 40
0.5300503053616135
 40
0.5944234089533956
 40
0.655582709982523
 40
0.7148491056365303
 40
0.7721150638706005
 40
0.8289992113006464
 40
0.8851221627752366
 40
0.9420793532637979
 40
1.0
 40
1.0
 40
1.0
 40
1.0
 10
0.4718064666039631
 20
0.0288130872398323
 30
0.0
 10
0.470581041975667
 20
0.0287912903356085
 30
0.0
 10
0.4681770578631282
 20
0.0287485301280474
 30
0.0
 10
0.4646551315581646
 20
0.0282725655438346
 30
0.0
 10
0.4612750856728444
 20
0.0276099910141774
 30
0.0
 10
0.4580483165196763
 20
0.026604839893114
 30
0.0
 10
0.4549761867261376
 20
0.0252978914572066
 30
0.0
 10
0.4520420653646378
 20
0.0237256654749906
 30
0.0
 10
0.4492683988463012
 20
0.0218671834594548
 30
0.0
 10
0.4466934883597589
 20
0.0197460568651682
 30
0.0
 10
0.4443421761748125
 20
0.0174602515911056
 30
0.0
 10
0.4422792509801112
 20
0.0150404824912943
 30
0.0
 10
0.4405273800948571
 20
0.0125317213565767
 30
0.0
 10
0.4391166221859529
 20
0.0099021060306271
 30
0.0
 10
0.4379586799789159
 20
0.0072073182018187
 30
0.0
 10
0.4371982911106282
 20
0.0043802475229407
 30
0.0
 10
0.4367108221510101
 20
0.0014752430665098
 30
0.0
 10
0.4366453642169901
 20
-0.000499563958988
 30
0.0
 10
0.4366123607590208
 20
-0.001495248617224
 30
0.0
  0
SPLINE
  5
14C
330
1B
100
AcDbEntity
 67
     1
  8
0
  6
Continuous
 62
     7
370
    25
100
AcDbSpline
210
0.0
220
0.0
230
1.0
 70
     8
 71
     3
 72
    23
 73
    19
 74
     0
 42
0.000000001
 43
0.00000001
 40
0.0
 40
0.0
 40
0.0
 40
0.0
 40
0.0573394259201587
 40
0.1130633316232406
 40
0.1691814487493788
 40
0.2257745596549403
 40
0.2838263038920837
 40
0.343454279086492
 40
0.4059069615102763
 40
0.4713922597696825
 40
0.5380028337126931
 40
0.603063556196349
 40
0.6676018307634217
 40
0.7322254428169042
 40
0.7970048098289849
 40
0.8630479900344336
 40
0.930356987057043
 40
1.0
 40
1.0
 40
1.0
 40
1.0
 10
0.5055099985542962
 20
-0.0001978972645085
 30
0.0
 10
0.5054743352262001
 20
0.0007421555145563
 30
0.0
 10
0.5054040133730139
 20
0.0025957753825114
 30
0.0
 10
0.5049576869409557
 20
0.0053424890326126
 30
0.0
 10
0.5041735972902037
 20
0.0079961431346488
 30
0.0
 10
0.5030977155240169
 20
0.0105886630528541
 30
0.0
 10
0.5016653941587546
 20
0.0130675193808907
 30
0.0
 10
0.4999785882532776
 20
0.015497289905027
 30
0.0
 10
0.497943386731901
 20
0.0178105357552859
 30
0.0
 10
0.4956436782220324
 20
0.0200252245746225
 30
0.0
 10
0.4931374199263358
 20
0.0220730882247486
 30
0.0
 10
0.4904733591053025
 20
0.0238846802959497
 30
0.0
 10
0.4876720023312442
 20
0.0254103541645192
 30
0.0
 10
0.484739277493275
 20
0.0266511610681504
 30
0.0
 10
0.4816816965509407
 20
0.0276270457003127
 30
0.0
 10
0.4785015084180018
 20
0.0283087777943063
 30
0.0
 10
0.4751949897271157
 20
0.0287378960164397
 30
0.0
 10
0.4729487349722951
 20
0.0287877403400367
 30
0.0
 10
0.4718064666039631
 20
0.0288130872398323
 30
0.0
  0
SPLINE
  5
14D
330
1B
100
AcDbEntity
 67
     1
  8
0
  6
Continuous
 62
     7
370
    25
100
AcDbSpline
210
0.0
220
0.0
230
1.0
 70
     8
 71
     3
 72
    19
 73
    15
 74
     0
 42
0.000000001
 43
0.00000001
 40
0.0
 40
0.0
 40
0.0
 40
0.0
 40
0.0748982079275954
 40
0.1485962943439398
 40
0.2244712347857274
 40
0.3023227423595709
 40
0.381918617989684
 40
0.4611486955215895
 40
0.5424171227241527
 40
0.6267160830665701
 40
0.7145968311855371
 40
0.8049029203553186
 40
0.9001272540718596
 40
1.0
 40
1.0
 40
1.0
 40
1.0
 10
0.4366123607590207
 20
-0.001495248617224
 30
0.0
 10
0.4366660323645719
 20
-0.0027326858670099
 30
0.0
 10
0.4367725155758138
 20
-0.0051877324547612
 30
0.0
 10
0.4376172651344518
 20
-0.0088161998281459
 30
0.0
 10
0.4389729948787993
 20
-0.0123288397820863
 30
0.0
 10
0.4408637514127445
 20
-0.0156970268979562
 30
0.0
 10
0.4432049944261451
 20
-0.0188446688790073
 30
0.0
 10
0.446083989228456
 20
-0.0215883214616093
 30
0.0
 10
0.4493218174863328
 20
-0.0240261749483537
 30
0.0
 10
0.453028032211836
 20
-0.025997849492602
 30
0.0
 10
0.4570763970172365
 20
-0.0275724500863836
 30
0.0
 10
0.4614658351635839
 20
-0.0286573305069751
 30
0.0
 10
0.4661333516477582
 20
-0.0293754978256606
 30
0.0
 10
0.4693561702406583
 20
-0.0294478671620443
 30
0.0
 10
0.4710059732161175
 20
-0.0294849139715547
 30
0.0
  0
SPLINE
  5
14E
330
1B
100
AcDbEntity
 67
     1
  8
0
  6
Continuous
 62
     7
370
    25
100
AcDbSpline
210
0.0
220
0.0
230
1.0
 70
     8
 71
     3
 72
    23
 73
    19
 74
     0
 42
0.000000001
 43
0.00000001
 40
0.0
 40
0.0
 40
0.0
 40
0.0
 40
0.0765589329940468
 40
0.1491613519791133
 40
0.2188268461269947
 40
0.2855671390889786
 40
0.3503131057192095
 40
0.4141251538580795
 40
0.4771791613162276
 40
0.5403680185081837
 40
0.6022023899907502
 40
0.6620336537315642
 40
0.7199344070495787
 40
0.7759074326823266
 40
0.8311148643832977
 40
0.8866674470119632
 40
0.9425523618334882
 40
1.0
 40
1.0
 40
1.0
 40
1.0
 10
0.4710059732161175
 20
-0.0294849139715547
 30
0.0
 10
0.4722953577799732
 20
-0.0294601577346277
 30
0.0
 10
0.4748074923832683
 20
-0.029411924646397
 30
0.0
 10
0.4784722935228742
 20
-0.0289861650279878
 30
0.0
 10
0.4819307403186945
 20
-0.0283109829544358
 30
0.0
 10
0.4851761260828268
 20
-0.0273289535909493
 30
0.0
 10
0.4882447811923483
 20
-0.0261301356162919
 30
0.0
 10
0.4910846770207494
 20
-0.0245879276827708
 30
0.0
 10
0.4937688710013068
 20
-0.0228338992162658
 30
0.0
 10
0.4961650963061572
 20
-0.0207528694309556
 30
0.0
 10
0.4983475060991709
 20
-0.0185292672767867
 30
0.0
 10
0.5002503916306352
 20
-0.0161753285703443
 30
0.0
 10
0.5019022637244037
 20
-0.0137550280870996
 30
0.0
 10
0.5031987580454659
 20
-0.0112136704222159
 30
0.0
 10
0.5042352247293845
 20
-0.0086000123671778
 30
0.0
 10
0.5049802465675752
 20
-0.0058899528683617
 30
0.0
 10
0.5054399400816186
 20
-0.0030751799174344
 30
0.0
 10
0.5054864320401609
 20
-0.001165767669329
 30
0.0
 10
0.5055099985542963
 20
-0.0001978972645085
 30
0.0
  0
SPLINE
  5
14F
330
1B
100
AcDbEntity
 67
     1
  8
0
  6
Continuous
 62
     7
370
    25
100
AcDbSpline
210
0.0
220
0.0
230
1.0
 70
     8
 71
     3
 72
    23
 73
    19
 74
     0
 42
0.000000001
 43
0.00000001
 40
0.0
 40
0.0
 40
0.0
 40
0.0
 40
0.0716681496796057
 40
0.1389132862742052
 40
0.2011845700265596
 40
0.2591244282905456
 40
0.3122550414262358
 40
0.3606815096231102
 40
0.4050861433286449
 40
0.4451016585907113
 40
0.5187777804882605
 40
0.5894615790331977
 40
0.6584622419857172
 40
0.7272832183683671
 40
0.7963224869047191
 40
0.8631748932078812
 40
0.930949380987856
 40
1.0
 40
1.0
 40
1.0
 40
1.0
 10
-0.2430341287422917
 20
0.0374528951845123
 30
0.0
 10
-0.2418561744540298
 20
0.0374523740563958
 30
0.0
 10
-0.2395729635438169
 20
0.0374513639616807
 30
0.0
 10
-0.236269787763841
 20
0.0376085992468602
 30
0.0
 10
-0.2331941928153529
 20
0.0377874700438277
 30
0.0
 10
-0.2303579427302184
 20
0.0380610663248018
 30
0.0
 10
-0.2277597704732905
 20
0.0384136675738474
 30
0.0
 10
-0.2254009746771647
 20
0.0388547299454469
 30
0.0
 10
-0.2232777049174506
 20
0.0393685906795763
 30
0.0
 10
-0.220801384507108
 20
0.0401639302783944
 30
0.0
 10
-0.2180361667371504
 20
0.0414240097376566
 30
0.0
 10
-0.2150309911514393
 20
0.0432572970878353
 30
0.0
 10
-0.2124718439959065
 20
0.0455631679212009
 30
0.0
 10
-0.2103097234327195
 20
0.048199918158776
 30
0.0
 10
-0.2085723442407775
 20
0.051098983073645
 30
0.0
 10
-0.2073474602118588
 20
0.0542256117829438
 30
0.0
 10
-0.2065701987042966
 20
0.0575008715470228
 30
0.0
 10
-0.2064785236866027
 20
0.0597519781550833
 30
0.0
 10
-0.2064322586635515
 20
0.0608880291942034
 30
0.0
  0
SPLINE
  5
153
330
1B
100
AcDbEntity
 67
     1
  8
0
  6
Continuous
 62
     7
370
    25
100
AcDbSpline
210
0.0
220
0.0
230
1.0
 70
     8
 71
     3
 72
    23
 73
    19
 74
     0
 42
0.000000001
 43
0.00000001
 40
0.0
 40
0.0
 40
0.0
 40
0.0
 40
0.0688142958243096
 40
0.1363648245522147
 40
0.2040193535112466
 40
0.2730637386246113
 40
0.3429133195614896
 40
0.4109654441389576
 40
0.4791687665134468
 40
0.5493080065097825
 40
0.5876515764176498
 40
0.6306466687627903
 40
0.6788787856966486
 40
0.7319342992295832
 40
0.7911114229480473
 40
0.8552831895130775
 40
0.9250859386773845
 40
1.0
 40
1.0
 40
1.0
 40
1.0
 10
-0.2064322586635515
 20
0.0608880291942034
 30
0.0
 10
-0.2064795862654605
 20
0.0619961620182068
 30
0.0
 10
-0.2065733723029909
 20
0.0641920769268122
 30
0.0
 10
-0.207339071851287
 20
0.0674068765444348
 30
0.0
 10
-0.2086339293850055
 20
0.0704410084393471
 30
0.0
 10
-0.2103788993820441
 20
0.0732821298957133
 30
0.0
 10
-0.2125048503648203
 20
0.0758610958742326
 30
0.0
 10
-0.2149976776362623
 20
0.0780676767032688
 30
0.0
 10
-0.2177892207524071
 20
0.0798885217693357
 30
0.0
 10
-0.2203983230497252
 20
0.0810520800572043
 30
0.0
 10
-0.2227303786596619
 20
0.0817654601062567
 30
0.0
 10
-0.2247551684250522
 20
0.082267474429526
 30
0.0
 10
-0.2270430218785713
 20
0.082670799977949
 30
0.0
 10
-0.2296050478081751
 20
0.0829939519809102
 30
0.0
 10
-0.2324303088626978
 20
0.0832717056914925
 30
0.0
 10
-0.2355330904017335
 20
0.0834587835914187
 30
0.0
 10
-0.238892806160052
 20
0.0835695656428364
 30
0.0
 10
-0.2412214254982971
 20
0.0835750415830158
 30
0.0
 10
-0.2424268578963397
 20
0.0835778762565899
 30
0.0
  0
SPLINE
  5
15C
330
1B
100
AcDbEntity
 67
     1
  8
0
  6
Continuous
 62
     7
370
    25
100
AcDbSpline
210
0.0
220
0.0
230
1.0
 70
     8
 71
     3
 72
    38
 73
    34
 74
     0
 42
0.000000001
 43
0.00000001
 40
0.0
 40
0.0
 40
0.0
 40
0.0
 40
0.0625000000000001
 40
0.0625000000000001
 40
0.1250000000000002
 40
0.1250000000000002
 40
0.1875000000000004
 40
0.1875000000000004
 40
0.2500000000000005
 40
0.2500000000000005
 40
0.3125000000000006
 40
0.3125000000000006
 40
0.3750000000000008
 40
0.3750000000000008
 40
0.4375000000000009
 40
0.4375000000000009
 40
0.500000000000001
 40
0.500000000000001
 40
0.5625000000000011
 40
0.5625000000000011
 40
0.6250000000000012
 40
0.6250000000000012
 40
0.687500000000001
 40
0.687500000000001
 40
0.7500000000000008
 40
0.7500000000000008
 40
0.8125000000000007
 40
0.8125000000000007
 40
0.8750000000000004
 40
0.8750000000000004
 40
0.9375000000000002
 40
0.9375000000000002
 40
1.0
 40
1.0
 40
1.0
 40
1.0
 10
2.075
 20
-0.873325859341481
 30
0.0
 10
2.086367590611085
 20
-0.8717965255540083
 30
0.0
 10
2.097391649097021
 20
-0.8692608429533528
 30
0.0
 10
2.118797916204684
 20
-0.8622850656124313
 30
0.0
 10
2.129274617844406
 20
-0.8577896938907207
 30
0.0
 10
2.14908485945142
 20
-0.8470783052525133
 30
0.0
 10
2.158362000652798
 20
-0.8409197530768651
 30
0.0
 10
2.175738868372429
 20
-0.8270337980564735
 30
0.0
 10
2.183886375017453
 20
-0.8192330762519441
 30
0.0
 10
2.198477661637037
 20
-0.8025371626428268
 30
0.0
 10
2.204989282008915
 20
-0.7936062098112104
 30
0.0
 10
2.21645682929916
 20
-0.774519131676948
 30
0.0
 10
2.221407290614681
 20
-0.7643142881169783
 30
0.0
 10
2.229311430118745
 20
-0.743431253906512
 30
0.0
 10
2.232331829390673
 20
-0.7326594988848124
 30
0.0
 10
2.236439287568486
 20
-0.710405641214178
 30
0.0
 10
2.237492576545601
 20
-0.6989214667743845
 30
0.0
 10
2.237507343389733
 20
-0.6763235811678585
 30
0.0
 10
2.236501822770204
 20
-0.665072213011996
 30
0.0
 10
2.232416606944573
 20
-0.6426656712259793
 30
0.0
 10
2.229367233600904
 20
-0.6317427699459447
 30
0.0
 10
2.221462241167082
 20
-0.6108046738914058
 30
0.0
 10
2.216545007868366
 20
-0.6006440538739433
 30
0.0
 10
2.205046177534736
 20
-0.5814722778930267
 30
0.0
 10
2.198524979509151
 20
-0.5725243022208287
 30
0.0
 10
2.18394592088453
 20
-0.5558277899616018
 30
0.0
 10
2.175800277896436
 20
-0.5480211821943023
 30
0.0
 10
2.158421659459446
 20
-0.5341220540776634
 30
0.0
 10
2.149169619942479
 20
-0.5279791194424237
 30
0.0
 10
2.12948811686559
 20
-0.5173143245435669
 30
0.0
 10
2.118957176440743
 20
-0.512773487696664
 30
0.0
 10
2.097430692034366
 20
-0.5057452868905221
 30
0.0
 10
2.086371213680178
 20
-0.5032039618739937
 30
0.0
 10
2.075
 20
-0.5016741406585189
 30
0.0
  0
SPLINE
  5
15D
330
1B
100
AcDbEntity
 67
     1
  8
0
  6
Continuous
 62
     7
370
    25
100
AcDbSpline
210
0.0
220
0.0
230
1.0
 70
     8
 71
     3
 72
    36
 73
    32
 74
     0
 42
0.000000001
 43
0.00000001
 40
0.0
 40
0.0
 40
0.0
 40
0.0
 40
0.1250000000000017
 40
0.1250000000000017
 40
0.1875000000000016
 40
0.1875000000000016
 40
0.2500000000000016
 40
0.2500000000000016
 40
0.3125000000000014
 40
0.3125000000000014
 40
0.3750000000000014
 40
0.3750000000000014
 40
0.4375000000000013
 40
0.4375000000000013
 40
0.5000000000000012
 40
0.5000000000000012
 40
0.5625000000000011
 40
0.5625000000000011
 40
0.6250000000000009
 40
0.6250000000000009
 40
0.6875000000000008
 40
0.6875000000000008
 40
0.7500000000000007
 40
0.7500000000000007
 40
0.8125000000000006
 40
0.8125000000000006
 40
0.8750000000000003
 40
0.8750000000000003
 40
0.9375000000000002
 40
0.9375000000000002
 40
1.0
 40
1.0
 40
1.0
 40
1.0
 10
2.075
 20
-0.126044634951274
 30
0.0
 10
2.089643581759696
 20
-0.1231401912664326
 30
0.0
 10
2.103402625001098
 20
-0.1178137558630705
 30
0.0
 10
2.122466474182392
 20
-0.1063756455983485
 30
0.0
 10
2.128400299964987
 20
-0.1020738542040116
 30
0.0
 10
2.139469706552228
 20
-0.0925248634482637
 30
0.0
 10
2.144639041791179
 20
-0.0872349931824531
 30
0.0
 10
2.153986252891781
 20
-0.0758508502010461
 30
0.0
 10
2.158120177882388
 20
-0.0698261638403548
 30
0.0
 10
2.165340230029897
 20
-0.0571165243920698
 30
0.0
 10
2.168447014344613
 20
-0.0503701820621799
 30
0.0
 10
2.173440107939459
 20
-0.0364608036118865
 30
0.0
 10
2.17531515064513
 20
-0.0293652383831088
 30
0.0
 10
2.177845110740407
 20
-0.0148940211588946
 30
0.0
 10
2.178498276256446
 20
-0.0074466625320491
 30
0.0
 10
2.178501716830578
 20
0.0073870532242664
 30
0.0
 10
2.177866092888736
 20
0.0147181981668447
 30
0.0
 10
2.175351136020991
 20
0.0292139652590424
 30
0.0
 10
2.173443297183536
 20
0.0364470667876158
 30
0.0
 10
2.168463085339438
 20
0.0503302464609974
 30
0.0
 10
2.1654070694037
 20
0.0569838423744828
 30
0.0
 10
2.158180648427704
 20
0.0697344768810367
 30
0.0
 10
2.153964832923396
 20
0.07587663973616
 30
0.0
 10
2.14466467266694
 20
0.0872040749695897
 30
0.0
 10
2.139570165569856
 20
0.0924289990690448
 30
0.0
 10
2.128483338753247
 20
0.1020112737262902
 30
0.0
 10
2.122434966246311
 20
0.1063925687016241
 30
0.0
 10
2.109839616889156
 20
0.1139536013498168
 30
0.0
 10
2.103258752220494
 20
0.117175136148495
 30
0.0
 10
2.089520332124162
 20
0.1224934715333771
 30
0.0
 10
2.082321916038418
 20
0.1245923882845976
 30
0.0
 10
2.075
 20
0.1260446349512741
 30
0.0
  0
SPLINE
  5
15E
330
1B
100
AcDbEntity
 67
     1
  8
0
  6
Continuous
 62
     7
370
    25
100
AcDbSpline
210
0.0
220
0.0
230
1.0
 70
     8
 71
     3
 72
    38
 73
    34
 74
     0
 42
0.000000001
 43
0.00000001
 40
0.0
 40
0.0
 40
0.0
 40
0.0
 40
0.0625000000000004
 40
0.0625000000000004
 40
0.1250000000000009
 40
0.1250000000000009
 40
0.1875000000000013
 40
0.1875000000000013
 40
0.2500000000000017
 40
0.2500000000000017
 40
0.3125000000000022
 40
0.3125000000000022
 40
0.3750000000000026
 40
0.3750000000000026
 40
0.4375000000000023
 40
0.4375000000000023
 40
0.500000000000002
 40
0.500000000000002
 40
0.5625000000000018
 40
0.5625000000000018
 40
0.6250000000000016
 40
0.6250000000000016
 40
0.6875000000000013
 40
0.6875000000000013
 40
0.750000000000001
 40
0.750000000000001
 40
0.8125000000000008
 40
0.8125000000000008
 40
0.8750000000000006
 40
0.8750000000000006
 40
0.9375000000000003
 40
0.9375000000000003
 40
1.0
 40
1.0
 40
1.0
 40
1.0
 10
2.075
 20
0.5016741406585189
 30
0.0
 10
2.086367590611085
 20
0.5032034744459919
 30
0.0
 10
2.097391649097021
 20
0.5057391570466472
 30
0.0
 10
2.118797916204683
 20
0.5127149343875684
 30
0.0
 10
2.129274617844405
 20
0.5172103061092792
 30
0.0
 10
2.149084859451419
 20
0.5279216947474867
 30
0.0
 10
2.158362000652799
 20
0.5340802469231347
 30
0.0
 10
2.175738868372429
 20
0.547966201943527
 30
0.0
 10
2.183886375017453
 20
0.555766923748056
 30
0.0
 10
2.198477661637037
 20
0.572462837357173
 30
0.0
 10
2.204989282008915
 20
0.5813937901887897
 30
0.0
 10
2.21645682929916
 20
0.600480868323052
 30
0.0
 10
2.221407290614681
 20
0.6106857118830215
 30
0.0
 10
2.229311430118744
 20
0.6315687460934879
 30
0.0
 10
2.232331829390673
 20
0.6423405011151875
 30
0.0
 10
2.236439287568484
 20
0.6645943587858216
 30
0.0
 10
2.237492576545601
 20
0.6760785332256155
 30
0.0
 10
2.237507343389733
 20
0.6986764188321416
 30
0.0
 10
2.236501822770204
 20
0.7099277869880041
 30
0.0
 10
2.232416606944574
 20
0.7323343287740212
 30
0.0
 10
2.229367233600905
 20
0.7432572300540555
 30
0.0
 10
2.221462241167083
 20
0.7641953261085944
 30
0.0
 10
2.216545007868366
 20
0.7743559461260567
 30
0.0
 10
2.205046177534735
 20
0.7935277221069732
 30
0.0
 10
2.198524979509151
 20
0.8024756977791707
 30
0.0
 10
2.18394592088453
 20
0.8191722100383981
 30
0.0
 10
2.175800277896436
 20
0.8269788178056979
 30
0.0
 10
2.158421659459447
 20
0.840877945922337
 30
0.0
 10
2.149169619942479
 20
0.8470208805575765
 30
0.0
 10
2.12948811686559
 20
0.8576856754564337
 30
0.0
 10
2.118957176440742
 20
0.862226512303336
 30
0.0
 10
2.097430692034366
 20
0.8692547131094781
 30
0.0
 10
2.086371213680178
 20
0.8717960381260064
 30
0.0
 10
2.075
 20
0.8733258593414811
 30
0.0
  0
CIRCLE
  5
16E
330
1B
100
AcDbEntity
 67
     1
  8
0
  6
Continuous
 62
     7
370
    25
100
AcDbCircle
 10
2.05
 20
0.6875
 30
0.0
 40
0.0979999999999994
  0
CIRCLE
  5
16F
330
1B
100
AcDbEntity
 67
     1
  8
0
  6
Continuous
 62
     7
370
    25
100
AcDbCircle
 10
2.05
 20
-0.6875
 30
0.0
 40
0.0979999999999994
  0
CIRCLE
  5
170
330
1B
100
AcDbEntity
 67
     1
  8
0
  6
Continuous
 62
     7
370
    25
100
AcDbCircle
 10
2.05
 20
0.6875
 30
0.0
 40
0.0794999999999999
  0
CIRCLE
  5
171
330
1B
100
AcDbEntity
 67
     1
  8
0
  6
Continuous
 62
     7
370
    25
100
AcDbCircle
 10
2.05
 20
0.0
 30
0.0
 40
0.0868930129412355
  0
CIRCLE
  5
172
330
1B
100
AcDbEntity
 67
     1
  8
0
  6
Continuous
 62
     7
370
    25
100
AcDbCircle
 10
2.05
 20
-0.6875
 30
0.0
 40
0.0794999999999999
  0
CIRCLE
  5
173
330
1B
100
AcDbEntity
 67
     1
  8
0
  6
Continuous
 62
     7
370
    25
100
AcDbCircle
 10
1.25
 20
0.5
 30
0.0
 40
0.0979999999999992
  0
CIRCLE
  5
174
330
1B
100
AcDbEntity
 67
     1
  8
0
  6
Continuous
 62
     7
370
    25
100
AcDbCircle
 10
1.25
 20
-0.5
 30
0.0
 40
0.0979999999999994
  0
CIRCLE
  5
175
330
1B
100
AcDbEntity
 67
     1
  8
0
  6
Continuous
 62
     7
370
    25
100
AcDbCircle
 10
-1.25
 20
0.5
 30
0.0
 40
0.0979999999999988
  0
CIRCLE
  5
176
330
1B
100
AcDbEntity
 67
     1
  8
0
  6
Continuous
 62
     7
370
    25
100
AcDbCircle
 10
-1.25
 20
-0.5
 30
0.0
 40
0.0979999999999988
  0
LINE
  5
177
330
1B
100
AcDbEntity
 67
     1
  8
0
  6
Continuous
 62
     7
370
    25
100
AcDbLine
 10
0.3076501157
 20
0.005847208
 30
0.0
 11
0.2546519327
 21
0.005847208
 31
0.0
  0
LINE
  5
178
330
1B
100
AcDbEntity
 67
     1
  8
0
  6
Continuous
 62
     7
370
    25
100
AcDbLine
 10
0.3076501157
 20
0.0199800568
 30
0.0
 11
0.3076501157
 21
0.005847208
 31
0.0
  0
LINE
  5
179
330
1B
100
AcDbEntity
 67
     1
  8
0
  6
Continuous
 62
     7
370
    25
100
AcDbLine
 10
0.2546519327
 20
0.0199800568
 30
0.0
 11
0.3076501157
 21
0.0199800568
 31
0.0
  0
LINE
  5
17A
330
1B
100
AcDbEntity
 67
     1
  8
0
  6
Continuous
 62
     7
370
    25
100
AcDbLine
 10
0.2546519327
 20
0.005847208
 30
0.0
 11
0.2546519327
 21
0.0199800568
 31
0.0
  0
LINE
  5
17B
330
1B
100
AcDbEntity
 67
     1
  8
0
  6
Continuous
 62
     7
370
    25
100
AcDbLine
 10
0.1080236267
 20
-0.0082856408
 30
0.0
 11
0.0426592011
 21
-0.0082856408
 31
0.0
  0
LINE
  5
17C
330
1B
100
AcDbEntity
 67
     1
  8
0
  6
Continuous
 62
     7
370
    25
100
AcDbLine
 10
0.1080236267
 20
-0.0400845506
 30
0.0
 11
0.1080236267
 21
-0.0082856408
 31
0.0
  0
LINE
  5
17D
330
1B
100
AcDbEntity
 67
     1
  8
0
  6
Continuous
 62
     7
370
    25
100
AcDbLine
 10
0.1203898693
 20
-0.0400845506
 30
0.0
 11
0.1080236267
 21
-0.0400845506
 31
0.0
  0
LINE
  5
17E
330
1B
100
AcDbEntity
 67
     1
  8
0
  6
Continuous
 62
     7
370
    25
100
AcDbLine
 10
0.1203898693
 20
-0.0082856408
 30
0.0
 11
0.1203898693
 21
-0.0400845506
 31
0.0
  0
LINE
  5
17F
330
1B
100
AcDbEntity
 67
     1
  8
0
  6
Continuous
 62
     7
370
    25
100
AcDbLine
 10
0.1362893242
 20
-0.0082856408
 30
0.0
 11
0.1203898693
 21
-0.0082856408
 31
0.0
  0
LINE
  5
180
330
1B
100
AcDbEntity
 67
     1
  8
0
  6
Continuous
 62
     7
370
    25
100
AcDbLine
 10
0.1362893242
 20
0.005847208
 30
0.0
 11
0.1362893242
 21
-0.0082856408
 31
0.0
  0
LINE
  5
181
330
1B
100
AcDbEntity
 67
     1
  8
0
  6
Continuous
 62
     7
370
    25
100
AcDbLine
 10
0.1203898693
 20
0.005847208
 30
0.0
 11
0.1362893242
 21
0.005847208
 31
0.0
  0
LINE
  5
182
330
1B
100
AcDbEntity
 67
     1
  8
0
  6
Continuous
 62
     7
370
    25
100
AcDbLine
 10
0.1203898693
 20
0.1012439372
 30
0.0
 11
0.1203898693
 21
0.005847208
 31
0.0
  0
LINE
  5
183
330
1B
100
AcDbEntity
 67
     1
  8
0
  6
Continuous
 62
     7
370
    25
100
AcDbLine
 10
0.1178779763
 20
0.1012439372
 30
0.0
 11
0.1203898693
 21
0.1012439372
 31
0.0
  0
LINE
  5
184
330
1B
100
AcDbEntity
 67
     1
  8
0
  6
Continuous
 62
     7
370
    25
100
AcDbLine
 10
0.0426592011
 20
-0.0082856408
 30
0.0
 11
0.1178779763
 21
0.1012439372
 31
0.0
  0
LINE
  5
185
330
1B
100
AcDbEntity
 67
     1
  8
0
  6
Continuous
 62
     7
370
    25
100
AcDbLine
 10
-0.1516674696
 20
-0.0400845506
 30
0.0
 11
-0.1640337123
 21
-0.0400845506
 31
0.0
  0
LINE
  5
186
330
1B
100
AcDbEntity
 67
     1
  8
0
  6
Continuous
 62
     7
370
    25
100
AcDbLine
 10
-0.1516674696
 20
0.0235132689
 30
0.0
 11
-0.1516674696
 21
-0.0400845506
 31
0.0
  0
LINE
  5
187
330
1B
100
AcDbEntity
 67
     1
  8
0
  6
Continuous
 62
     7
370
    25
100
AcDbLine
 10
-0.14181312
 20
0.0235132689
 30
0.0
 11
-0.1516674696
 21
0.0235132689
 31
0.0
  0
LINE
  5
188
330
1B
100
AcDbEntity
 67
     1
  8
0
  6
Continuous
 62
     7
370
    25
100
AcDbLine
 10
-0.1640337123
 20
0.097710725
 30
0.0
 11
-0.1370101597
 21
0.097710725
 31
0.0
  0
LINE
  5
189
330
1B
100
AcDbEntity
 67
     1
  8
0
  6
Continuous
 62
     7
370
    25
100
AcDbLine
 10
-0.1640337123
 20
-0.0400845506
 30
0.0
 11
-0.1640337123
 21
0.097710725
 31
0.0
  0
LINE
  5
18A
330
1B
100
AcDbEntity
 67
     1
  8
0
  6
Continuous
 62
     7
370
    25
100
AcDbLine
 10
-0.3197158747
 20
-0.0065190347
 30
0.0
 11
-0.3088954123
 21
-0.0147171911
 31
0.0
  0
LINE
  5
18B
330
1B
100
AcDbEntity
 67
     1
  8
0
  6
Continuous
 62
     7
370
    25
100
AcDbLine
 10
-0.3088954123
 20
0.0724261753
 30
0.0
 11
-0.3197158747
 21
0.0641452092
 31
0.0
  0
LINE
  5
18C
330
1B
100
AcDbEntity
 67
     1
  8
0
  6
Continuous
 62
     7
370
    25
100
AcDbLine
 10
2.45
 20
0.94
 30
0.0
 11
-2.45
 21
0.94
 31
0.0
  0
LINE
  5
18D
330
1B
100
AcDbEntity
 67
     1
  8
0
  6
Continuous
 62
     7
370
    25
100
AcDbLine
 10
2.075
 20
0.8733258593
 30
0.0
 11
2.075
 21
0.95
 31
0.0
  0
LINE
  5
18E
330
1B
100
AcDbEntity
 67
     1
  8
0
  6
Continuous
 62
     7
370
    25
100
AcDbLine
 10
2.075
 20
0.126044635
 30
0.0
 11
2.075
 21
0.5016741407
 31
0.0
  0
LINE
  5
18F
330
1B
100
AcDbEntity
 67
     1
  8
0
  6
Continuous
 62
     7
370
    25
100
AcDbLine
 10
2.075
 20
-0.5016741407
 30
0.0
 11
2.075
 21
-0.126044635
 31
0.0
  0
LINE
  5
190
330
1B
100
AcDbEntity
 67
     1
  8
0
  6
Continuous
 62
     7
370
    25
100
AcDbLine
 10
2.075
 20
-0.95
 30
0.0
 11
2.075
 21
-0.8733258593
 31
0.0
  0
LINE
  5
191
330
1B
100
AcDbEntity
 67
     1
  8
0
  6
Continuous
 62
     7
370
    25
100
AcDbLine
 10
-2.45
 20
-0.94
 30
0.0
 11
2.45
 21
-0.94
 31
0.0
  0
LINE
  5
192
330
1B
100
AcDbEntity
 67
     1
  8
0
  6
Continuous
 62
     7
370
    25
100
AcDbLine
 10
-2.075
 20
0.95
 30
0.0
 11
-2.075
 21
-0.95
 31
0.0
  0
LINE
  5
193
330
1B
100
AcDbEntity
 67
     1
  8
0
  6
Continuous
 62
     7
370
    25
100
AcDbLine
 10
-0.2682634721
 20
-0.0400845506
 30
0.0
 11
-0.2806297148
 21
-0.0400845506
 31
0.0
  0
LINE
  5
194
330
1B
100
AcDbEntity
 67
     1
  8
0
  6
Continuous
 62
     7
370
    25
100
AcDbLine
 10
-0.2682634721
 20
0.0235132689
 30
0.0
 11
-0.2682634721
 21
-0.0400845506
 31
0.0
  0
LINE
  5
195
330
1B
100
AcDbEntity
 67
     1
  8
0
  6
Continuous
 62
     7
370
    25
100
AcDbLine
 10
-0.2582158999
 20
0.0235132689
 30
0.0
 11
-0.2682634721
 21
0.0235132689
 31
0.0
  0
LINE
  5
196
330
1B
100
AcDbEntity
 67
     1
  8
0
  6
Continuous
 62
     7
370
    25
100
AcDbLine
 10
-0.2075915939
 20
-0.0400845506
 30
0.0
 11
-0.2582158999
 21
0.0235132689
 31
0.0
  0
LINE
  5
197
330
1B
100
AcDbEntity
 67
     1
  8
0
  6
Continuous
 62
     7
370
    25
100
AcDbLine
 10
-0.1922994099
 20
-0.0400845506
 30
0.0
 11
-0.2075915939
 21
-0.0400845506
 31
0.0
  0
LINE
  5
198
330
1B
100
AcDbEntity
 67
     1
  8
0
  6
Continuous
 62
     7
370
    25
100
AcDbLine
 10
-0.2429237159
 20
0.0235132689
 30
0.0
 11
-0.1922994099
 21
-0.0400845506
 31
0.0
  0
LINE
  5
199
330
1B
100
AcDbEntity
 67
     1
  8
0
  6
Continuous
 62
     7
370
    25
100
AcDbLine
 10
-0.2806297148
 20
0.097710725
 30
0.0
 11
-0.2530540977
 21
0.097710725
 31
0.0
  0
LINE
  5
19A
330
1B
100
AcDbEntity
 67
     1
  8
0
  6
Continuous
 62
     7
370
    25
100
AcDbLine
 10
-0.2806297148
 20
-0.0400845506
 30
0.0
 11
-0.2806297148
 21
0.097710725
 31
0.0
  0
LINE
  5
19B
330
1B
100
AcDbEntity
 67
     1
  8
0
  6
Continuous
 62
     7
370
    25
100
AcDbLine
 10
-0.0209386184
 20
0.0835778763
 30
0.0
 11
-0.0421378916
 21
0.0835778763
 31
0.0
  0
LINE
  5
19C
330
1B
100
AcDbEntity
 67
     1
  8
0
  6
Continuous
 62
     7
370
    25
100
AcDbLine
 10
-0.0209386184
 20
-0.0400845506
 30
0.0
 11
-0.0209386184
 21
0.0835778763
 31
0.0
  0
LINE
  5
19D
330
1B
100
AcDbEntity
 67
     1
  8
0
  6
Continuous
 62
     7
370
    25
100
AcDbLine
 10
-0.0085723758
 20
-0.0400845506
 30
0.0
 11
-0.0209386184
 21
-0.0400845506
 31
0.0
  0
LINE
  5
19E
330
1B
100
AcDbEntity
 67
     1
  8
0
  6
Continuous
 62
     7
370
    25
100
AcDbLine
 10
-0.0085723758
 20
0.097710725
 30
0.0
 11
-0.0085723758
 21
-0.0400845506
 31
0.0
  0
LINE
  5
19F
330
1B
100
AcDbEntity
 67
     1
  8
0
  6
Continuous
 62
     7
370
    25
100
AcDbLine
 10
-0.0340501481
 20
0.097710725
 30
0.0
 11
-0.0085723758
 21
0.097710725
 31
0.0
  0
LINE
  5
1A0
330
1B
100
AcDbEntity
 67
     1
  8
0
  6
Continuous
 62
     7
370
    25
100
AcDbLine
 10
-0.0421378916
 20
0.0835778763
 30
0.0
 11
-0.0340501481
 21
0.097710725
 31
0.0
  0
LINE
  5
1A1
330
1B
100
AcDbEntity
 67
     1
  8
0
  6
Continuous
 62
     7
370
    25
100
AcDbLine
 10
0.1486555669
 20
-0.0400845506
 30
0.0
 11
0.2020954013
 21
0.0169437025
 31
0.0
  0
LINE
  5
1A2
330
1B
100
AcDbEntity
 67
     1
  8
0
  6
Continuous
 62
     7
370
    25
100
AcDbLine
 10
0.2422856901
 20
-0.0400845506
 30
0.0
 11
0.1486555669
 21
-0.0400845506
 31
0.0
  0
LINE
  5
1A3
330
1B
100
AcDbEntity
 67
     1
  8
0
  6
Continuous
 62
     7
370
    25
100
AcDbLine
 10
0.2422856901
 20
-0.0259517018
 30
0.0
 11
0.2422856901
 21
-0.0400845506
 31
0.0
  0
LINE
  5
1A4
330
1B
100
AcDbEntity
 67
     1
  8
0
  6
Continuous
 62
     7
370
    25
100
AcDbLine
 10
0.1781634094
 20
-0.0259517018
 30
0.0
 11
0.2422856901
 21
-0.0259517018
 31
0.0
  0
LINE
  5
1A5
330
1B
100
AcDbEntity
 67
     1
  8
0
  6
Continuous
 62
     7
370
    25
100
AcDbLine
 10
0.2126398315
 20
0.0108433908
 30
0.0
 11
0.1781634094
 21
-0.0259517018
 31
0.0
  0
LINE
  5
1A6
330
1B
100
AcDbEntity
 67
     1
  8
0
  6
Continuous
 62
     7
370
    25
100
AcDbLine
 10
0.1663216279
 20
0.0553121787
 30
0.0
 11
0.1539553852
 21
0.0553121787
 31
0.0
  0
LINE
  5
1A7
330
1B
100
AcDbEntity
 67
     1
  8
0
  6
Continuous
 62
     7
370
    25
100
AcDbLine
 10
-0.1516674696
 20
0.0376461177
 30
0.0
 11
-0.1275422551
 21
0.0373424823
 31
0.0
  0
LINE
  5
1A8
330
1B
100
AcDbEntity
 67
     1
  8
0
  6
Continuous
 62
     7
370
    25
100
AcDbLine
 10
-0.1516674696
 20
0.0835778763
 30
0.0
 11
-0.1516674696
 21
0.0376461177
 31
0.0
  0
LINE
  5
1A9
330
1B
100
AcDbEntity
 67
     1
  8
0
  6
Continuous
 62
     7
370
    25
100
AcDbLine
 10
-0.1264657295
 20
0.0835778763
 30
0.0
 11
-0.1516674696
 21
0.0835778763
 31
0.0
  0
LINE
  5
1AA
330
1B
100
AcDbEntity
 67
     1
  8
0
  6
Continuous
 62
     7
370
    25
100
AcDbLine
 10
-0.2682634721
 20
0.0376461177
 30
0.0
 11
-0.2430341287
 21
0.0374528952
 31
0.0
  0
LINE
  5
1AB
330
1B
100
AcDbEntity
 67
     1
  8
0
  6
Continuous
 62
     7
370
    25
100
AcDbLine
 10
-0.2682634721
 20
0.0835778763
 30
0.0
 11
-0.2682634721
 21
0.0376461177
 31
0.0
  0
LINE
  5
1AC
330
1B
100
AcDbEntity
 67
     1
  8
0
  6
Continuous
 62
     7
370
    25
100
AcDbLine
 10
-0.2424268579
 20
0.0835778763
 30
0.0
 11
-0.2682634721
 21
0.0835778763
 31
0.0
  0
LINE
  5
1AD
330
1B
100
AcDbEntity
 67
     1
  8
0
  6
Continuous
 62
     7
370
    25
100
AcDbLine
 10
2.44
 20
-0.95
 30
0.0
 11
-2.44
 21
-0.95
 31
0.0
  0
LINE
  5
1AE
330
1B
100
AcDbEntity
 67
     1
  8
0
  6
Continuous
 62
     7
370
    25
100
AcDbLine
 10
2.45
 20
0.94
 30
0.0
 11
2.45
 21
-0.94
 31
0.0
  0
LINE
  5
1AF
330
1B
100
AcDbEntity
 67
     1
  8
0
  6
Continuous
 62
     7
370
    25
100
AcDbLine
 10
0.1080236267
 20
0.0656909895
 30
0.0
 11
0.0669500349
 21
0.005847208
 31
0.0
  0
LINE
  5
1B0
330
1B
100
AcDbEntity
 67
     1
  8
0
  6
Continuous
 62
     7
370
    25
100
AcDbLine
 10
0.1080236267
 20
0.005847208
 30
0.0
 11
0.1080236267
 21
0.0656909895
 31
0.0
  0
LINE
  5
1B1
330
1B
100
AcDbEntity
 67
     1
  8
0
  6
Continuous
 62
     7
370
    25
100
AcDbLine
 10
0.0669500349
 20
0.005847208
 30
0.0
 11
0.1080236267
 21
0.005847208
 31
0.0
  0
LINE
  5
1B2
330
1B
100
AcDbEntity
 67
     1
  8
0
  6
Continuous
 62
     7
370
    25
100
AcDbLine
 10
-2.45
 20
-0.94
 30
0.0
 11
-2.45
 21
0.94
 31
0.0
  0
LINE
  5
1B3
330
1B
100
AcDbEntity
 67
     1
  8
0
  6
Continuous
 62
     7
370
    25
100
AcDbLine
 10
-2.44
 20
0.95
 30
0.0
 11
2.44
 21
0.95
 31
0.0
  0
ARC
  5
1B4
330
1B
100
AcDbEntity
 67
     1
  8
0
  6
Continuous
 62
     7
370
    25
100
AcDbCircle
 10
2.05
 20
0.6875
 30
0.0
 40
0.1874999999999996
100
AcDbArc
 50
82.3377443392
 51
277.6622556608
  0
ARC
  5
1B5
330
1B
100
AcDbEntity
 67
     1
  8
0
  6
Continuous
 62
     7
370
    25
100
AcDbCircle
 10
2.05
 20
0.0
 30
0.0
 40
0.1284999999999998
100
AcDbArc
 50
78.7814152155
 51
281.2185847845
  0
ARC
  5
1B6
330
1B
100
AcDbEntity
 67
     1
  8
0
  6
Continuous
 62
     7
370
    25
100
AcDbCircle
 10
2.05
 20
-0.6875
 30
0.0
 40
0.1874999999999996
100
AcDbArc
 50
82.3377443392
 51
277.6622556608
  0
ARC
  5
1B7
330
1B
100
AcDbEntity
 67
     1
  8
0
  6
Continuous
 62
     7
370
    25
100
AcDbCircle
 10
2.44
 20
-0.94
 30
0.0
 40
0.0100000000000011
100
AcDbArc
 50
270.0
 51
360.0
  0
ARC
  5
1B8
330
1B
100
AcDbEntity
 67
     1
  8
0
  6
Continuous
 62
     7
370
    25
100
AcDbCircle
 10
-2.44
 20
-0.94
 30
0.0
 40
0.0100000000000002
100
AcDbArc
 50
180.0
 51
270.0
  0
ARC
  5
1B9
330
1B
100
AcDbEntity
 67
     1
  8
0
  6
Continuous
 62
     7
370
    25
100
AcDbCircle
 10
-2.44
 20
0.94
 30
0.0
 40
0.0099999999999999
100
AcDbArc
 50
90.0
 51
180.0
  0
ARC
  5
1BA
330
1B
100
AcDbEntity
 67
     1
  8
0
  6
Continuous
 62
     7
370
    25
100
AcDbCircle
 10
2.44
 20
0.94
 30
0.0
 40
0.0099999999999999
100
AcDbArc
 50
0.0
 51
90.0
  0
VIEWPORT
  5
266
330
1B
100
AcDbEntity
 67
     1
  8
0
100
AcDbViewport
 10
0.0
 20
0.0
 30
0.0
 40
8.4
 41
6.4
 68
     1
 69
     1
 12
0.0
 22
0.0
 13
0.0
 23
0.0
 14
0.5
 24
0.5
 15
0.5
 25
0.5
 16
0.0
 26
0.0
 36
1.0
 17
0.0
 27
0.0
 37
0.0
 42
50.0
 43
0.0
 44
0.0
 45
5.1
 50
0.0
 51
0.0
 72
   100
 90
   557152
  1

281
     0
 71
     1
 74
     0
110
0.0
120
0.0
130
0.0
111
1.0
121
0.0
131
0.0
112
0.0
122
1.0
132
0.0
 79
     0
146
0.0
  0
ENDSEC
  0
SECTION
  2
OBJECTS
  0
DICTIONARY
  5
C
330
0
100
AcDbDictionary
281
     1
  3
ACAD_GROUP
350
D
  3
ACAD_LAYOUT
350
1A
  3
ACAD_MLINESTYLE
350
17
  3
ACAD_PLOTSETTINGS
350
19
  3
ACAD_PLOTSTYLENAME
350
E
  3
ACAD_SCALELIST
350
47
  0
DICTIONARY
  5
D
102
{ACAD_REACTORS
330
C
102
}
330
C
100
AcDbDictionary
281
     1
  0
DICTIONARY
  5
1A
102
{ACAD_REACTORS
330
C
102
}
330
C
100
AcDbDictionary
281
     1
  3
_Back
350
217
  3
_Front
350
1E
  3
_Right
350
26
  3
Model
350
22
  0
DICTIONARY
  5
17
102
{ACAD_REACTORS
330
C
102
}
330
C
100
AcDbDictionary
281
     1
  3
Standard
350
18
  0
DICTIONARY
  5
19
102
{ACAD_REACTORS
330
C
102
}
330
C
100
AcDbDictionary
281
     1
  0
ACDBDICTIONARYWDFLT
  5
E
102
{ACAD_REACTORS
330
C
102
}
330
C
100
AcDbDictionary
281
     1
  3
Normal
350
F
100
AcDbDictionaryWithDefault
340
F
  0
DICTIONARY
  5
47
102
{ACAD_REACTORS
330
C
102
}
330
C
100
AcDbDictionary
281
     1
  3
A0
350
48
  3
A1
350
49
  3
A2
350
4A
  3
A3
350
4B
  3
A4
350
4C
  3
A5
350
4D
  3
A6
350
4E
  3
A7
350
4F
  3
A8
350
50
  3
A9
350
51
  3
B0
350
52
  3
B1
350
53
  3
B2
350
54
  3
B3
350
55
  3
B4
350
56
  3
B5
350
57
  3
B6
350
58
  3
B7
350
59
  3
B8
350
5A
  3
B9
350
5B
  3
C0
350
5C
  3
C1
350
5D
  3
C2
350
5E
  3
C3
350
5F
  3
C4
350
60
  3
C5
350
61
  3
C6
350
62
  3
C7
350
63
  3
C8
350
64
  3
C9
350
65
  3
D0
350
66
  3
D1
350
67
  3
D2
350
68
  0
LAYOUT
  5
217
102
{ACAD_REACTORS
330
1A
102
}
330
1A
100
AcDbPlotSettings
  1

  2
none_device
  4
Letter_(8.50_x_11.00_Inches)
  6

 40
6.35
 41
6.35
 42
6.35001
 43
6.35001
 44
215.9
 45
279.4
 46
0.0
 47
0.0
 48
0.0
 49
0.0
140
0.0
141
0.0
142
1.0
143
0.4666666842
 70
   688
 72
     0
 73
     1
 74
     1
  7

 75
     0
147
2.1428570625
148
62.23
149
24.13
100
AcDbLayout
  1
_Back
 70
     1
 71
     3
 10
0.0
 20
0.0
 11
0.0
 21
0.0
 12
0.0
 22
0.0
 32
0.0
 14
0.0
 24
0.0
 34
0.0
 15
0.0
 25
0.0
 35
0.0
146
0.0
 13
0.0
 23
0.0
 33
0.0
 16
1.0
 26
0.0
 36
0.0
 17
0.0
 27
1.0
 37
0.0
 76
     0
330
216
331
26A
  0
LAYOUT
  5
1E
102
{ACAD_REACTORS
330
1A
102
}
330
1A
100
AcDbPlotSettings
  1

  2
none_device
  4
ANSI_A_(11.00_x_8.50_Inches)
  6

 40
6.35
 41
19.05
 42
6.35000508
 43
19.05000254
 44
279.4
 45
215.9
 46
133.34999746
 47
88.89999873
 48
0.0
 49
0.0
140
0.0
141
0.0
142
1.683
143
1.0
 70
  1696
 72
     0
 73
     0
 74
     1
  7

 75
     0
147
1.39999998
148
62.23
149
63.5
100
AcDbLayout
  1
_Front
 70
     1
 71
     1
 10
-2.5666668548
 20
-1.066666671
 11
2.566666671
 21
2.9000001444
 12
0.0
 22
0.0
 32
0.0
 14
-2.45
 24
-2.5
 34
0.0
 15
2.45
 25
2.5
 35
0.0
146
0.0
 13
0.0
 23
0.0
 33
0.0
 16
1.0
 26
0.0
 36
0.0
 17
0.0
 27
1.0
 37
0.0
 76
     0
330
1B
331
266
  0
LAYOUT
  5
26
102
{ACAD_REACTORS
330
1A
102
}
330
1A
100
AcDbPlotSettings
  1

  2
none_device
  4
Letter_(8.50_x_11.00_Inches)
  6

 40
6.35
 41
6.35
 42
6.35001
 43
6.35001
 44
215.9
 45
279.4
 46
0.0
 47
0.0
 48
0.0
 49
0.0
140
0.0
141
0.0
142
1.0
143
0.4666666842
 70
   688
 72
     0
 73
     1
 74
     1
  7

 75
     0
147
2.1428570625
148
62.23
149
24.13
100
AcDbLayout
  1
_Right
 70
     1
 71
     2
 10
0.0
 20
0.0
 11
0.0
 21
0.0
 12
0.0
 22
0.0
 32
0.0
 14
0.0
 24
0.0
 34
0.0
 15
0.0
 25
0.0
 35
0.0
146
0.0
 13
0.0
 23
0.0
 33
0.0
 16
1.0
 26
0.0
 36
0.0
 17
0.0
 27
1.0
 37
0.0
 76
     0
330
23
331
268
  0
LAYOUT
  5
22
102
{ACAD_REACTORS
330
1A
102
}
330
1A
100
AcDbPlotSettings
  1

  2
none_device
  4
Letter_(8.50_x_11.00_Inches)
  6

 40
6.35
 41
6.35
 42
6.35000508
 43
6.35000508
 44
215.9
 45
279.4
 46
0.0
 47
0.0
 48
0.0
 49
0.0
140
0.0
141
0.0
142
1.0
143
1.0
 70
  1712
 72
     0
 73
     0
 74
     0
  7

 75
     0
147
1.0
148
0.0
149
0.0
100
AcDbLayout
  1
Model
 70
     1
 71
     0
 10
0.0
 20
0.0
 11
12.0
 21
9.0
 12
0.0
 22
0.0
 32
0.0
 14
-2.45
 24
-2.5
 34
0.0
 15
2.45
 25
2.5
 35
0.0
146
0.0
 13
0.0
 23
0.0
 33
0.0
 16
1.0
 26
0.0
 36
0.0
 17
0.0
 27
1.0
 37
0.0
 76
     0
330
1F
331
29
  0
MLINESTYLE
  5
18
102
{ACAD_REACTORS
330
17
102
}
330
17
100
AcDbMlineStyle
  2
Standard
 70
     0
  3

 62
   256
 51
90.0
 52
90.0
 71
     2
 49
0.5
 62
   256
  6
BYLAYER
 49
-0.5
 62
   256
  6
BYLAYER
  0
ACDBPLACEHOLDER
  5
F
102
{ACAD_REACTORS
330
E
102
}
330
E
  0
SCALE
  5
48
102
{ACAD_REACTORS
330
47
102
}
330
47
100
AcDbScale
 70
     0
300
1:1
140
1.0
141
1.0
290
     1
  0
SCALE
  5
49
102
{ACAD_REACTORS
330
47
102
}
330
47
100
AcDbScale
 70
     0
300
1:2
140
1.0
141
2.0
290
     0
  0
SCALE
  5
4A
102
{ACAD_REACTORS
330
47
102
}
330
47
100
AcDbScale
 70
     0
300
1:4
140
1.0
141
4.0
290
     0
  0
SCALE
  5
4B
102
{ACAD_REACTORS
330
47
102
}
330
47
100
AcDbScale
 70
     0
300
1:5
140
1.0
141
5.0
290
     0
  0
SCALE
  5
4C
102
{ACAD_REACTORS
330
47
102
}
330
47
100
AcDbScale
 70
     0
300
1:8
140
1.0
141
8.0
290
     0
  0
SCALE
  5
4D
102
{ACAD_REACTORS
330
47
102
}
330
47
100
AcDbScale
 70
     0
300
1:10
140
1.0
141
10.0
290
     0
  0
SCALE
  5
4E
102
{ACAD_REACTORS
330
47
102
}
330
47
100
AcDbScale
 70
     0
300
1:16
140
1.0
141
16.0
290
     0
  0
SCALE
  5
4F
102
{ACAD_REACTORS
330
47
102
}
330
47
100
AcDbScale
 70
     0
300
1:20
140
1.0
141
20.0
290
     0
  0
SCALE
  5
50
102
{ACAD_REACTORS
330
47
102
}
330
47
100
AcDbScale
 70
     0
300
1:30
140
1.0
141
30.0
290
     0
  0
SCALE
  5
51
102
{ACAD_REACTORS
330
47
102
}
330
47
100
AcDbScale
 70
     0
300
1:40
140
1.0
141
40.0
290
     0
  0
SCALE
  5
52
102
{ACAD_REACTORS
330
47
102
}
330
47
100
AcDbScale
 70
     0
300
1:50
140
1.0
141
50.0
290
     0
  0
SCALE
  5
53
102
{ACAD_REACTORS
330
47
102
}
330
47
100
AcDbScale
 70
     0
300
1:100
140
1.0
141
100.0
290
     0
  0
SCALE
  5
54
102
{ACAD_REACTORS
330
47
102
}
330
47
100
AcDbScale
 70
     0
300
2:1
140
2.0
141
1.0
290
     0
  0
SCALE
  5
55
102
{ACAD_REACTORS
330
47
102
}
330
47
100
AcDbScale
 70
     0
300
4:1
140
4.0
141
1.0
290
     0
  0
SCALE
  5
56
102
{ACAD_REACTORS
330
47
102
}
330
47
100
AcDbScale
 70
     0
300
8:1
140
8.0
141
1.0
290
     0
  0
SCALE
  5
57
102
{ACAD_REACTORS
330
47
102
}
330
47
100
AcDbScale
 70
     0
300
10:1
140
10.0
141
1.0
290
     0
  0
SCALE
  5
58
102
{ACAD_REACTORS
330
47
102
}
330
47
100
AcDbScale
 70
     0
300
100:1
140
100.0
141
1.0
290
     0
  0
SCALE
  5
59
102
{ACAD_REACTORS
330
47
102
}
330
47
100
AcDbScale
 70
     0
300
1/128" = 1'-0"
140
0.0078125
141
12.0
290
     0
  0
SCALE
  5
5A
102
{ACAD_REACTORS
330
47
102
}
330
47
100
AcDbScale
 70
     0
300
1/64" = 1'-0"
140
0.015625
141
12.0
290
     0
  0
SCALE
  5
5B
102
{ACAD_REACTORS
330
47
102
}
330
47
100
AcDbScale
 70
     0
300
1/32" = 1'-0"
140
0.03125
141
12.0
290
     0
  0
SCALE
  5
5C
102
{ACAD_REACTORS
330
47
102
}
330
47
100
AcDbScale
 70
     0
300
1/16" = 1'-0"
140
0.0625
141
12.0
290
     0
  0
SCALE
  5
5D
102
{ACAD_REACTORS
330
47
102
}
330
47
100
AcDbScale
 70
     0
300
3/32" = 1'-0"
140
0.09375
141
12.0
290
     0
  0
SCALE
  5
5E
102
{ACAD_REACTORS
330
47
102
}
330
47
100
AcDbScale
 70
     0
300
1/8" = 1'-0"
140
0.125
141
12.0
290
     0
  0
SCALE
  5
5F
102
{ACAD_REACTORS
330
47
102
}
330
47
100
AcDbScale
 70
     0
300
3/16" = 1'-0"
140
0.1875
141
12.0
290
     0
  0
SCALE
  5
60
102
{ACAD_REACTORS
330
47
102
}
330
47
100
AcDbScale
 70
     0
300
1/4" = 1'-0"
140
0.25
141
12.0
290
     0
  0
SCALE
  5
61
102
{ACAD_REACTORS
330
47
102
}
330
47
100
AcDbScale
 70
     0
300
3/8" = 1'-0"
140
0.375
141
12.0
290
     0
  0
SCALE
  5
62
102
{ACAD_REACTORS
330
47
102
}
330
47
100
AcDbScale
 70
     0
300
1/2" = 1'-0"
140
0.5
141
12.0
290
     0
  0
SCALE
  5
63
102
{ACAD_REACTORS
330
47
102
}
330
47
100
AcDbScale
 70
     0
300
3/4" = 1'-0"
140
0.75
141
12.0
290
     0
  0
SCALE
  5
64
102
{ACAD_REACTORS
330
47
102
}
330
47
100
AcDbScale
 70
     0
300
1" = 1'-0"
140
1.0
141
12.0
290
     0
  0
SCALE
  5
65
102
{ACAD_REACTORS
330
47
102
}
330
47
100
AcDbScale
 70
     0
300
1-1/2" = 1'-0"
140
1.5
141
12.0
290
     0
  0
SCALE
  5
66
102
{ACAD_REACTORS
330
47
102
}
330
47
100
AcDbScale
 70
     0
300
3" = 1'-0"
140
3.0
141
12.0
290
     0
  0
SCALE
  5
67
102
{ACAD_REACTORS
330
47
102
}
330
47
100
AcDbScale
 70
     0
300
6" = 1'-0"
140
6.0
141
12.0
290
     0
  0
SCALE
  5
68
102
{ACAD_REACTORS
330
47
102
}
330
47
100
AcDbScale
 70
     0
300
1'-0" = 1'-0"
140
12.0
141
12.0
290
     0
  0
ENDSEC
  0
EOF
