  0
SECTION
  2
HEADER
  9
$ACADVER
  1
AC1015
  9
$ACADMAINTVER
 70
     6
  9
$DWGCODEPAGE
  3
ANSI_1252
  9
$INSBASE
 10
0.0
 20
0.0
 30
0.0
  9
$EXTMIN
 10
0.0
 20
0.0
 30
0.0
  9
$EXTMAX
 10
3.7
 20
3.7
 30
0.0
  9
$LIMMIN
 10
0.0
 20
0.0
  9
$LIMMAX
 10
12.0
 20
9.0
  9
$ORTHOMODE
 70
     0
  9
$REGENMODE
 70
     1
  9
$FILLMODE
 70
     1
  9
$QTEXTMODE
 70
     0
  9
$MIRRTEXT
 70
     1
  9
$LTSCALE
 40
1.0
  9
$ATTMODE
 70
     1
  9
$TEXTSIZE
 40
0.1377952756
  9
$TRACEWID
 40
0.05
  9
$TEXTSTYLE
  7
Standard
  9
$CLAYER
  8
0
  9
$CELTYPE
  6
ByLayer
  9
$CECOLOR
 62
   256
  9
$CELTSCALE
 40
1.0
  9
$DISPSILH
 70
     0
  9
$DIMSCALE
 40
1.0
  9
$DIMASZ
 40
0.2362204724
  9
$DIMEXO
 40
0.0393700787
  9
$DIMDLI
 40
0.38
  9
$DIMRND
 40
0.0
  9
$DIMDLE
 40
0.0
  9
$DIMEXE
 40
0.0393700787
  9
$DIMTP
 40
0.0
  9
$DIMTM
 40
0.0
  9
$DIMTXT
 40
0.1377952756
  9
$DIMCEN
 40
0.09
  9
$DIMTSZ
 40
0.0
  9
$DIMTOL
 70
     0
  9
$DIMLIM
 70
     0
  9
$DIMTIH
 70
     1
  9
$DIMTOH
 70
     1
  9
$DIMSE1
 70
     0
  9
$DIMSE2
 70
     0
  9
$DIMTAD
 70
     1
  9
$DIMZIN
 70
     0
  9
$DIMBLK
  1

  9
$DIMASO
 70
     1
  9
$DIMSHO
 70
     1
  9
$DIMPOST
  1

  9
$DIMAPOST
  1

  9
$DIMALT
 70
     0
  9
$DIMALTD
 70
     2
  9
$DIMALTF
 40
25.4
  9
$DIMLFAC
 40
1.0
  9
$DIMTOFL
 70
     0
  9
$DIMTVP
 40
0.0
  9
$DIMTIX
 70
     0
  9
$DIMSOXD
 70
     0
  9
$DIMSAH
 70
     0
  9
$DIMBLK1
  1

  9
$DIMBLK2
  1

  9
$DIMSTYLE
  2
Standard
  9
$DIMCLRD
 70
     0
  9
$DIMCLRE
 70
     0
  9
$DIMCLRT
 70
     0
  9
$DIMTFAC
 40
1.0
  9
$DIMGAP
 40
0.06
  9
$DIMJUST
 70
     0
  9
$DIMSD1
 70
     0
  9
$DIMSD2
 70
     0
  9
$DIMTOLJ
 70
     1
  9
$DIMTZIN
 70
     0
  9
$DIMALTZ
 70
     0
  9
$DIMALTTZ
 70
     0
  9
$DIMUPT
 70
     0
  9
$DIMDEC
 70
     3
  9
$DIMTDEC
 70
     3
  9
$DIMALTU
 70
     2
  9
$DIMALTTD
 70
     2
  9
$DIMTXSTY
  7
Standard
  9
$DIMAUNIT
 70
     0
  9
$DIMADEC
 70
     2
  9
$DIMALTRND
 40
0.0
  9
$DIMAZIN
 70
     0
  9
$DIMDSEP
 70
    46
  9
$DIMATFIT
 70
     3
  9
$DIMFRAC
 70
     0
  9
$DIMLDRBLK
  1

  9
$DIMLUNIT
 70
     2
  9
$DIMLWD
 70
    -2
  9
$DIMLWE
 70
    -2
  9
$DIMTMOVE
 70
     0
  9
$LUNITS
 70
     2
  9
$LUPREC
 70
     2
  9
$SKETCHINC
 40
0.1
  9
$FILLETRAD
 40
0.5
  9
$AUNITS
 70
     0
  9
$AUPREC
 70
     2
  9
$MENU
  1
.
  9
$ELEVATION
 40
0.0
  9
$PELEVATION
 40
0.0
  9
$THICKNESS
 40
0.0
  9
$LIMCHECK
 70
     0
  9
$CHAMFERA
 40
0.0
  9
$CHAMFERB
 40
0.0
  9
$CHAMFERC
 40
0.0
  9
$CHAMFERD
 40
0.0
  9
$SKPOLY
 70
     0
  9
$TDCREATE
 40
2458226.581838021
  9
$TDUCREATE
 40
2458226.873504688
  9
$TDUPDATE
 40
2458226.581902616
  9
$TDUUPDATE
 40
2458226.873569282
  9
$TDINDWG
 40
0.0000000116
  9
$TDUSRTIMER
 40
0.0000000116
  9
$USRTIMER
 70
     1
  9
$ANGBASE
 50
0.0
  9
$ANGDIR
 70
     0
  9
$PDMODE
 70
     0
  9
$PDSIZE
 40
-1.0
  9
$PLINEWID
 40
0.0
  9
$SPLFRAME
 70
     0
  9
$SPLINETYPE
 70
     6
  9
$SPLINESEGS
 70
     8
  9
$HANDSEED
  5
27E
  9
$SURFTAB1
 70
     6
  9
$SURFTAB2
 70
     6
  9
$SURFTYPE
 70
     6
  9
$SURFU
 70
     6
  9
$SURFV
 70
     6
  9
$UCSBASE
  2

  9
$UCSNAME
  2

  9
$UCSORG
 10
0.0
 20
0.0
 30
0.0
  9
$UCSXDIR
 10
1.0
 20
0.0
 30
0.0
  9
$UCSYDIR
 10
0.0
 20
1.0
 30
0.0
  9
$UCSORTHOREF
  2

  9
$UCSORTHOVIEW
 70
     0
  9
$UCSORGTOP
 10
0.0
 20
0.0
 30
0.0
  9
$UCSORGBOTTOM
 10
0.0
 20
0.0
 30
0.0
  9
$UCSORGLEFT
 10
0.0
 20
0.0
 30
0.0
  9
$UCSORGRIGHT
 10
0.0
 20
0.0
 30
0.0
  9
$UCSORGFRONT
 10
0.0
 20
0.0
 30
0.0
  9
$UCSORGBACK
 10
0.0
 20
0.0
 30
0.0
  9
$PUCSBASE
  2

  9
$PUCSNAME
  2

  9
$PUCSORG
 10
0.0
 20
0.0
 30
0.0
  9
$PUCSXDIR
 10
1.0
 20
0.0
 30
0.0
  9
$PUCSYDIR
 10
0.0
 20
1.0
 30
0.0
  9
$PUCSORTHOREF
  2

  9
$PUCSORTHOVIEW
 70
     0
  9
$PUCSORGTOP
 10
0.0
 20
0.0
 30
0.0
  9
$PUCSORGBOTTOM
 10
0.0
 20
0.0
 30
0.0
  9
$PUCSORGLEFT
 10
0.0
 20
0.0
 30
0.0
  9
$PUCSORGRIGHT
 10
0.0
 20
0.0
 30
0.0
  9
$PUCSORGFRONT
 10
0.0
 20
0.0
 30
0.0
  9
$PUCSORGBACK
 10
0.0
 20
0.0
 30
0.0
  9
$USERI1
 70
     0
  9
$USERI2
 70
     0
  9
$USERI3
 70
     0
  9
$USERI4
 70
     0
  9
$USERI5
 70
     0
  9
$USERR1
 40
0.0
  9
$USERR2
 40
0.0
  9
$USERR3
 40
0.0
  9
$USERR4
 40
0.0
  9
$USERR5
 40
0.0
  9
$WORLDVIEW
 70
     1
  9
$SHADEDGE
 70
     3
  9
$SHADEDIF
 70
    70
  9
$TILEMODE
 70
     0
  9
$MAXACTVP
 70
    64
  9
$PINSBASE
 10
0.0
 20
0.0
 30
0.0
  9
$PLIMCHECK
 70
     0
  9
$PEXTMIN
 10
0.0
 20
0.0
 30
0.0
  9
$PEXTMAX
 10
3.7
 20
3.7
 30
0.0
  9
$PLIMMIN
 10
0.0
 20
0.0
  9
$PLIMMAX
 10
0.0
 20
0.0
  9
$UNITMODE
 70
     0
  9
$VISRETAIN
 70
     1
  9
$PLINEGEN
 70
     0
  9
$PSLTSCALE
 70
     1
  9
$TREEDEPTH
 70
  3020
  9
$CMLSTYLE
  2
Standard
  9
$CMLJUST
 70
     0
  9
$CMLSCALE
 40
1.0
  9
$PROXYGRAPHICS
 70
     1
  9
$MEASUREMENT
 70
     0
  9
$CELWEIGHT
370
    -1
  9
$ENDCAPS
280
     0
  9
$JOINSTYLE
280
     0
  9
$LWDISPLAY
290
     1
  9
$INSUNITS
 70
     1
  9
$HYPERLINKBASE
  1

  9
$STYLESHEET
  1

  9
$XEDIT
290
     1
  9
$CEPSNTYPE
380
     0
  9
$PSTYLEMODE
290
     1
  9
$FINGERPRINTGUID
  2
{525D2FCE-850A-4104-AEE8-4688A150049D}
  9
$VERSIONGUID
  2
{FAEB1C32-E019-11D5-929B-00C0DF256EC4}
  9
$EXTNAMES
290
     1
  9
$PSVPSCALE
 40
0.0
  9
$OLESTARTUP
290
     0
  0
ENDSEC
  0
SECTION
  2
CLASSES
  0
CLASS
  1
ACDBDICTIONARYWDFLT
  2
AcDbDictionaryWithDefault
  3
ObjectDBX Classes
 90
        0
280
     0
281
     0
  0
CLASS
  1
VISUALSTYLE
  2
AcDbVisualStyle
  3
ObjectDBX Classes
 90
     4095
280
     0
281
     0
  0
CLASS
  1
MATERIAL
  2
AcDbMaterial
  3
ObjectDBX Classes
 90
     1153
280
     0
281
     0
  0
CLASS
  1
SCALE
  2
AcDbScale
  3
ObjectDBX Classes
 90
     1153
280
     0
281
     0
  0
CLASS
  1
TABLESTYLE
  2
AcDbTableStyle
  3
ObjectDBX Classes
 90
     4095
280
     0
281
     0
  0
CLASS
  1
MLEADERSTYLE
  2
AcDbMLeaderStyle
  3
ACDB_MLEADERSTYLE_CLASS
 90
     4095
280
     0
281
     0
  0
CLASS
  1
SUN
  2
AcDbSun
  3
SCENEOE
 90
     1153
280
     0
281
     0
  0
CLASS
  1
ACDBPLACEHOLDER
  2
AcDbPlaceHolder
  3
ObjectDBX Classes
 90
        0
280
     0
281
     0
  0
CLASS
  1
LAYOUT
  2
AcDbLayout
  3
ObjectDBX Classes
 90
        0
280
     0
281
     0
  0
ENDSEC
  0
SECTION
  2
TABLES
  0
TABLE
  2
VPORT
  5
8
330
0
100
AcDbSymbolTable
 70
     1
  0
VPORT
  5
29
330
8
100
AcDbSymbolTableRecord
100
AcDbViewportTableRecord
  2
*Active
 70
     0
 10
0.0
 20
0.0
 11
1.0
 21
1.0
 12
1.85
 22
1.85
 13
0.0
 23
0.0
 14
0.5
 24
0.5
 15
0.5
 25
0.5
 16
0.0
 26
0.0
 36
1.0
 17
0.0
 27
0.0
 37
0.0
 40
3.774
 41
1.0
 42
50.0
 43
0.0
 44
0.0
 50
0.0
 51
0.0
 71
     0
 72
   100
 73
     1
 74
     3
 75
     0
 76
     0
 77
     0
 78
     0
281
     0
 65
     1
110
0.0
120
0.0
130
0.0
111
1.0
121
0.0
131
0.0
112
0.0
122
1.0
132
0.0
 79
     0
146
0.0
  0
ENDTAB
  0
TABLE
  2
LTYPE
  5
5
330
0
100
AcDbSymbolTable
 70
     6
  0
LTYPE
  5
14
330
5
100
AcDbSymbolTableRecord
100
AcDbLinetypeTableRecord
  2
ByBlock
 70
     0
  3

 72
    65
 73
     0
 40
0.0
  0
LTYPE
  5
15
330
5
100
AcDbSymbolTableRecord
100
AcDbLinetypeTableRecord
  2
ByLayer
 70
     0
  3

 72
    65
 73
     0
 40
0.0
  0
LTYPE
  5
16
330
5
100
AcDbSymbolTableRecord
100
AcDbLinetypeTableRecord
  2
Continuous
 70
     0
  3
Solid line
 72
    65
 73
     0
 40
0.0
  0
LTYPE
  5
6E
330
5
100
AcDbSymbolTableRecord
100
AcDbLinetypeTableRecord
  2
HIDDEN
 70
     0
  3
Hidden __ __ __ __ __ __ __ __ __ __ __ __ __ __
 72
    65
 73
     2
 40
0.075
 49
0.05
 74
     0
 49
-0.025
 74
     0
  0
LTYPE
  5
6F
330
5
100
AcDbSymbolTableRecord
100
AcDbLinetypeTableRecord
  2
PHANTOM
 70
     0
  3
Phantom ______  __  __  ______  __  __  ______
 72
    65
 73
     6
 40
0.5
 49
0.25
 74
     0
 49
-0.05
 74
     0
 49
0.05
 74
     0
 49
-0.05
 74
     0
 49
0.05
 74
     0
 49
-0.05
 74
     0
  0
LTYPE
  5
70
330
5
100
AcDbSymbolTableRecord
100
AcDbLinetypeTableRecord
  2
CENTER
 70
     0
  3
Center ____ _ ____ _ ____ _ ____ _ ____ _ ____
 72
    65
 73
     4
 40
0.4
 49
0.25
 74
     0
 49
-0.05
 74
     0
 49
0.05
 74
     0
 49
-0.05
 74
     0
  0
LTYPE
  5
71
330
5
100
AcDbSymbolTableRecord
100
AcDbLinetypeTableRecord
  2
CENTERX2
 70
     0
  3
Center (2x) ________  __  ________  __  _____
 72
    65
 73
     4
 40
0.8
 49
0.5
 74
     0
 49
-0.1
 74
     0
 49
0.1
 74
     0
 49
-0.1
 74
     0
  0
LTYPE
  5
72
330
5
100
AcDbSymbolTableRecord
100
AcDbLinetypeTableRecord
  2
DOT2
 70
     0
  3
Dot (.5x) ........................................
 72
    65
 73
     2
 40
0.025
 49
0.0
 74
     0
 49
-0.025
 74
     0
  0
ENDTAB
  0
TABLE
  2
LAYER
  5
2
330
0
100
AcDbSymbolTable
 70
     1
  0
LAYER
  5
10
330
2
100
AcDbSymbolTableRecord
100
AcDbLayerTableRecord
  2
0
 70
     0
 62
     7
  6
Continuous
370
    -3
390
F
  0
ENDTAB
  0
TABLE
  2
STYLE
  5
3
330
0
100
AcDbSymbolTable
 70
     1
  0
STYLE
  5
11
330
3
100
AcDbSymbolTableRecord
100
AcDbTextStyleTableRecord
  2
Standard
 70
     0
 40
0.0
 41
1.0
 50
0.0
 71
     0
 42
0.1377952756
  3
txt
  4

  0
ENDTAB
  0
TABLE
  2
VIEW
  5
6
330
0
100
AcDbSymbolTable
 70
     0
  0
ENDTAB
  0
TABLE
  2
UCS
  5
7
330
0
100
AcDbSymbolTable
 70
     0
  0
ENDTAB
  0
TABLE
  2
APPID
  5
9
330
0
100
AcDbSymbolTable
 70
     1
  0
APPID
  5
12
330
9
100
AcDbSymbolTableRecord
100
AcDbRegAppTableRecord
  2
ACAD
 70
     0
  0
ENDTAB
  0
TABLE
  2
DIMSTYLE
  5
A
330
0
100
AcDbSymbolTable
 70
     1
100
AcDbDimStyleTable
  0
DIMSTYLE
105
27
330
A
100
AcDbSymbolTableRecord
100
AcDbDimStyleTableRecord
  2
Standard
 70
     0
178
     0
340
11
  0
ENDTAB
  0
TABLE
  2
BLOCK_RECORD
  5
1
330
0
100
AcDbSymbolTable
 70
     2
  0
BLOCK_RECORD
  5
1F
330
1
100
AcDbSymbolTableRecord
100
AcDbBlockTableRecord
  2
*Model_Space
340
22
  0
BLOCK_RECORD
  5
238
330
1
100
AcDbSymbolTableRecord
100
AcDbBlockTableRecord
  2
*Paper_Space
340
239
  0
BLOCK_RECORD
  5
1B
330
1
100
AcDbSymbolTableRecord
100
AcDbBlockTableRecord
  2
*Paper_Space0
340
1E
  0
BLOCK_RECORD
  5
23
330
1
100
AcDbSymbolTableRecord
100
AcDbBlockTableRecord
  2
*Paper_Space1
340
26
  0
ENDTAB
  0
ENDSEC
  0
SECTION
  2
BLOCKS
  0
BLOCK
  5
20
330
1F
100
AcDbEntity
  8
0
100
AcDbBlockBegin
  2
*Model_Space
 70
     0
 10
0.0
 20
0.0
 30
0.0
  3
*Model_Space
  1

  0
ENDBLK
  5
21
330
1F
100
AcDbEntity
  8
0
100
AcDbBlockEnd
  0
BLOCK
  5
23A
330
238
100
AcDbEntity
 67
     1
  8
0
100
AcDbBlockBegin
  2
*Paper_Space
 70
     0
 10
0.0
 20
0.0
 30
0.0
  3
*Paper_Space
  1

  0
ENDBLK
  5
23B
330
238
100
AcDbEntity
 67
     1
  8
0
100
AcDbBlockEnd
  0
BLOCK
  5
1C
330
1B
100
AcDbEntity
  8
0
100
AcDbBlockBegin
  2
*Paper_Space0
 70
     0
 10
0.0
 20
0.0
 30
0.0
  3
*Paper_Space0
  1

  0
SPLINE
  5
F9
330
1B
100
AcDbEntity
  8
0
  6
Continuous
 62
     7
370
    25
100
AcDbSpline
210
0.0
220
0.0
230
1.0
 70
     8
 71
     3
 72
    15
 73
    11
 74
     0
 42
0.000000001
 43
0.00000001
 40
0.0
 40
0.0
 40
0.0
 40
0.0
 40
0.1022030370352165
 40
0.2110233423738676
 40
0.3250996615652024
 40
0.4465020971348847
 40
0.5737877176488586
 40
0.7089007097660672
 40
0.8503578712934067
 40
1.0
 40
1.0
 40
1.0
 40
1.0
 10
2.340198678268109
 20
0.7616182623629465
 30
0.0
 10
2.339130610204863
 20
0.7615954044433574
 30
0.0
 10
2.336925320625149
 20
0.7615482086385026
 30
0.0
 10
2.333542532171241
 20
0.7612007087634494
 30
0.0
 10
2.329987739928063
 20
0.7606401066206122
 30
0.0
 10
2.326274570811678
 20
0.7598689945155235
 30
0.0
 10
2.322391873642269
 20
0.7588598970053421
 30
0.0
 10
2.318347842117573
 20
0.7576506646972507
 30
0.0
 10
2.314133973353823
 20
0.7562049167164013
 30
0.0
 10
2.311294692865682
 20
0.7551130972775542
 30
0.0
 10
2.309835135970513
 20
0.7545518379736875
 30
0.0
  0
SPLINE
  5
FA
330
1B
100
AcDbEntity
  8
0
  6
Continuous
 62
     7
370
    25
100
AcDbSpline
210
0.0
220
0.0
230
1.0
 70
     8
 71
     3
 72
    23
 73
    19
 74
     0
 42
0.000000001
 43
0.00000001
 40
0.0
 40
0.0
 40
0.0
 40
0.0
 40
0.0653513820265926
 40
0.1279160318306119
 40
0.1883602055716989
 40
0.2472160772654503
 40
0.3056301291974084
 40
0.3637698398318181
 40
0.4226609139127779
 40
0.4826872940903889
 40
0.5433002212395565
 40
0.6041179553231014
 40
0.664964891265282
 40
0.7274134941125618
 40
0.7914676251494228
 40
0.8580554427291004
 40
0.9270368146149431
 40
1.0
 40
1.0
 40
1.0
 40
1.0
 10
2.373432955473843
 20
0.7311995136248096
 30
0.0
 10
2.373407031085597
 20
0.7323048581768242
 30
0.0
 10
2.373356287784241
 20
0.7344684128640377
 30
0.0
 10
2.372941698402234
 20
0.7376337359522752
 30
0.0
 10
2.37222055775839
 20
0.740628737617692
 30
0.0
 10
2.371219617602999
 20
0.7434678806874545
 30
0.0
 10
2.369948770841833
 20
0.746153842984622
 30
0.0
 10
2.368395766419829
 20
0.7486893965358086
 30
0.0
 10
2.366531459414181
 20
0.7510411222532701
 30
0.0
 10
2.364401857501242
 20
0.7532101204268714
 30
0.0
 10
2.362068863763323
 20
0.7552118871541591
 30
0.0
 10
2.359492338464227
 20
0.756918347250694
 30
0.0
 10
2.356726199614022
 20
0.7583539345598213
 30
0.0
 10
2.353803774438083
 20
0.7595928321323714
 30
0.0
 10
2.350655550084249
 20
0.7604826252583294
 30
0.0
 10
2.347343871644115
 20
0.7611506522442376
 30
0.0
 10
2.343832977630456
 20
0.7615370838457444
 30
0.0
 10
2.341432556837781
 20
0.7615907014983336
 30
0.0
 10
2.340198678268109
 20
0.7616182623629465
 30
0.0
  0
SPLINE
  5
FB
330
1B
100
AcDbEntity
  8
0
  6
Continuous
 62
     7
370
    25
100
AcDbSpline
210
0.0
220
0.0
230
1.0
 70
     8
 71
     3
 72
    23
 73
    19
 74
     0
 42
0.000000001
 43
0.00000001
 40
0.0
 40
0.0
 40
0.0
 40
0.0
 40
0.0642072952829815
 40
0.1264246897797398
 40
0.187680284264921
 40
0.248216424455215
 40
0.3083050600086136
 40
0.3696609913251434
 40
0.43169855178678
 40
0.4959468922087637
 40
0.5597580239721178
 40
0.622295407826159
 40
0.6839106352841735
 40
0.7450924080566238
 40
0.8067402253892932
 40
0.8690866181212009
 40
0.9332900029747994
 40
1.0
 40
1.0
 40
1.0
 40
1.0
 10
2.338459675391063
 20
0.6962538367623003
 30
0.0
 10
2.339639141706706
 20
0.6962861508530532
 30
0.0
 10
2.341961520533027
 20
0.6963497775621528
 30
0.0
 10
2.345379291662674
 20
0.6968395024475776
 30
0.0
 10
2.34867901111945
 20
0.6975937375384295
 30
0.0
 10
2.351828119653269
 20
0.6987224719866091
 30
0.0
 10
2.354881723574099
 20
0.7000943112947134
 30
0.0
 10
2.357762580677366
 20
0.7018547473504556
 30
0.0
 10
2.360554032533301
 20
0.7038807323286064
 30
0.0
 10
2.363169313380583
 20
0.7062018594956663
 30
0.0
 10
2.365564567288443
 20
0.7087597214885523
 30
0.0
 10
2.36768095001025
 20
0.711495051938351
 30
0.0
 10
2.369443820617577
 20
0.714413038022715
 30
0.0
 10
2.370929415454968
 20
0.7174631621507053
 30
0.0
 10
2.372057498085779
 20
0.720678853378203
 30
0.0
 10
2.372862261126048
 20
0.724045041377116
 30
0.0
 10
2.373334822496854
 20
0.7275700405978422
 30
0.0
 10
2.373399829582365
 20
0.7299743441323394
 30
0.0
 10
2.373432955473843
 20
0.7311995136248096
 30
0.0
  0
SPLINE
  5
FC
330
1B
100
AcDbEntity
  8
0
  6
Continuous
 62
     7
370
    25
100
AcDbSpline
210
0.0
220
0.0
230
1.0
 70
     8
 71
     3
 72
    19
 73
    15
 74
     0
 42
0.000000001
 43
0.00000001
 40
0.0
 40
0.0
 40
0.0
 40
0.0
 40
0.0946872518675533
 40
0.1819941557072761
 40
0.2643769486105146
 40
0.3421798619477741
 40
0.4186176108621459
 40
0.4965090753719099
 40
0.5773690916117316
 40
0.6615105924542006
 40
0.7467325508291953
 40
0.8312579843277419
 40
0.9152056162136545
 40
1.0
 40
1.0
 40
1.0
 40
1.0
 10
2.308068529873197
 20
0.7209863221247074
 30
0.0
 10
2.308372803786195
 20
0.7196722885637362
 30
0.0
 10
2.308957635142135
 20
0.7171466430963377
 30
0.0
 10
2.310241326037882
 20
0.7135981650911001
 30
0.0
 10
2.311810848694289
 20
0.7104359909306248
 30
0.0
 10
2.313677161624101
 20
0.7076182908017454
 30
0.0
 10
2.315903540777101
 20
0.7051612436650425
 30
0.0
 10
2.318444069475556
 20
0.7029715955572565
 30
0.0
 10
2.321292405034579
 20
0.7009961967648317
 30
0.0
 10
2.324457492810951
 20
0.6993496311271415
 30
0.0
 10
2.32779659042199
 20
0.6979453494972202
 30
0.0
 10
2.331291362469611
 20
0.6970102433967599
 30
0.0
 10
2.334846651700758
 20
0.6963527279305088
 30
0.0
 10
2.337251311944716
 20
0.696286910576114
 30
0.0
 10
2.338459675391063
 20
0.6962538367623003
 30
0.0
  0
SPLINE
  5
FE
330
1B
100
AcDbEntity
  8
0
  6
Continuous
 62
     7
370
    25
100
AcDbSpline
210
0.0
220
0.0
230
1.0
 70
     8
 71
     3
 72
    23
 73
    19
 74
     0
 42
0.000000001
 43
0.00000001
 40
0.0
 40
0.0
 40
0.0
 40
0.0
 40
0.0654211437588903
 40
0.1287083718818832
 40
0.1902361418635383
 40
0.2507244020335382
 40
0.3106371794134447
 40
0.3707664082897252
 40
0.4316147444123521
 40
0.4935229735663532
 40
0.5558834553775321
 40
0.6173423673185102
 40
0.6786680390972746
 40
0.7407113595451459
 40
0.8029853625127436
 40
0.8668025802655174
 40
0.9323471713458886
 40
1.0
 40
1.0
 40
1.0
 40
1.0
 10
2.337741991664031
 20
0.6821209879837823
 30
0.0
 10
2.336368992423785
 20
0.6821481863296172
 30
0.0
 10
2.333667778616547
 20
0.6822016958619953
 30
0.0
 10
2.329710275975934
 20
0.6827614787460117
 30
0.0
 10
2.325902614334459
 20
0.6835632077378438
 30
0.0
 10
2.322275444997553
 20
0.6847693600940779
 30
0.0
 10
2.318796261387111
 20
0.6862806709086544
 30
0.0
 10
2.315511902419042
 20
0.6881907564005991
 30
0.0
 10
2.312338446669128
 20
0.6903552880441838
 30
0.0
 10
2.309404901915213
 20
0.6929096326490978
 30
0.0
 10
2.306682220282547
 20
0.69570158863463
 30
0.0
 10
2.304244956153794
 20
0.698731417026981
 30
0.0
 10
2.302074342896447
 20
0.7019491115973009
 30
0.0
 10
2.300205140259089
 20
0.7053702987656363
 30
0.0
 10
2.29861072997104
 20
0.7089859889600295
 30
0.0
 10
2.297358171377473
 20
0.7128097291526264
 30
0.0
 10
2.296347212521443
 20
0.7168215403313459
 30
0.0
 10
2.295919518801901
 20
0.719583489560105
 30
0.0
 10
2.295702287191992
 20
0.7209863221247085
 30
0.0
  0
SPLINE
  5
FF
330
1B
100
AcDbEntity
  8
0
  6
Continuous
 62
     7
370
    25
100
AcDbSpline
210
0.0
220
0.0
230
1.0
 70
     8
 71
     3
 72
    31
 73
    27
 74
     0
 42
0.000000001
 43
0.00000001
 40
0.0
 40
0.0
 40
0.0
 40
0.0
 40
0.0440144705761392
 40
0.0874341236677064
 40
0.1301183986578984
 40
0.1725536945581829
 40
0.2145547559681401
 40
0.2562980920971305
 40
0.2984382251332498
 40
0.3408490025880955
 40
0.3827151889670271
 40
0.4239240454075324
 40
0.4642462432504174
 40
0.5040736714617952
 40
0.5438619058684899
 40
0.5835667249796532
 40
0.623094318852334
 40
0.6632290607685819
 40
0.7035512586114714
 40
0.7439378946861848
 40
0.7845412548000923
 40
0.8257501112405989
 40
0.8677573633885067
 40
0.9107451640323078
 40
0.9549144468914772
 40
1.0
 40
1.0
 40
1.0
 40
1.0
 10
2.385799198155045
 20
0.7306750524396686
 30
0.0
 10
2.385773014089164
 20
0.7295521303785677
 30
0.0
 10
2.385720999812396
 20
0.7273214615763689
 30
0.0
 10
2.38545648848768
 20
0.724008697769863
 30
0.0
 10
2.384947208327674
 20
0.7207660665461473
 30
0.0
 10
2.384263439662162
 20
0.7175931377335991
 30
0.0
 10
2.383375942891864
 20
0.7144959183564684
 30
0.0
 10
2.382301570690987
 20
0.71146554324124
 30
0.0
 10
2.380986766458315
 20
0.7085208736844243
 30
0.0
 10
2.37954458633001
 20
0.7056340471086853
 30
0.0
 10
2.377920709242007
 20
0.7028703263529873
 30
0.0
 10
2.376118405803464
 20
0.7002857205835916
 30
0.0
 10
2.374214252605733
 20
0.6978414575331979
 30
0.0
 10
2.372165379162495
 20
0.6955637515092158
 30
0.0
 10
2.369952741559638
 20
0.6934675697024058
 30
0.0
 10
2.367603136565083
 20
0.6915404720053202
 30
0.0
 10
2.365135312981258
 20
0.6897498684500807
 30
0.0
 10
2.362511090842638
 20
0.6881684434431714
 30
0.0
 10
2.359788945844073
 20
0.6867132089489668
 30
0.0
 10
2.356929567216495
 20
0.6855193688963932
 30
0.0
 10
2.353998043576436
 20
0.6844520252710046
 30
0.0
 10
2.350952182332542
 20
0.6836012564673972
 30
0.0
 10
2.34779888262326
 20
0.6829346204626984
 30
0.0
 10
2.344532946580661
 20
0.6824818409114206
 30
0.0
 10
2.341171502878936
 20
0.6821520599086544
 30
0.0
 10
2.338892959076578
 20
0.6821314159342202
 30
0.0
 10
2.337741991664031
 20
0.6821209879837823
 30
0.0
  0
SPLINE
  5
100
330
1B
100
AcDbEntity
  8
0
  6
Continuous
 62
     7
370
    25
100
AcDbSpline
210
0.0
220
0.0
230
1.0
 70
     8
 71
     3
 72
    23
 73
    19
 74
     0
 42
0.000000001
 43
0.00000001
 40
0.0
 40
0.0
 40
0.0
 40
0.0
 40
0.0658076458106945
 40
0.1293942736680556
 40
0.190894060632192
 40
0.2512810689298359
 40
0.3108149644652729
 40
0.3703709874482442
 40
0.4307682625897272
 40
0.492881250617505
 40
0.5551039481552491
 40
0.6160670509938452
 40
0.6772560331746552
 40
0.7382598051991168
 40
0.8007621343762971
 40
0.8647775815744844
 40
0.9310452949994029
 40
0.9999999999999999
 40
0.9999999999999999
 40
0.9999999999999999
 40
0.9999999999999999
 10
2.342434539110023
 20
0.775751111141466
 30
0.0
 10
2.343973269019951
 20
0.7757178065865593
 30
0.0
 10
2.346998796473697
 20
0.7756523215104869
 30
0.0
 10
2.351425526670296
 20
0.7750235085402389
 30
0.0
 10
2.355651231127704
 20
0.7740337481217267
 30
0.0
 10
2.359667072473227
 20
0.7726510504155548
 30
0.0
 10
2.363480479978634
 20
0.770882950683496
 30
0.0
 10
2.367056368225896
 20
0.7686742916142902
 30
0.0
 10
2.370448412044275
 20
0.7660942392068231
 30
0.0
 10
2.373595758262944
 20
0.7631279001532953
 30
0.0
 10
2.376451045985992
 20
0.7598632695724992
 30
0.0
 10
2.378961518020125
 20
0.7563531171692155
 30
0.0
 10
2.381093903465177
 20
0.752631555667853
 30
0.0
 10
2.382808893814643
 20
0.7486630277647737
 30
0.0
 10
2.384178355794008
 20
0.7444914075517653
 30
0.0
 10
2.385089851654003
 20
0.7400728019394733
 30
0.0
 10
2.385696808699722
 20
0.735448860206662
 30
0.0
 10
2.385764619184745
 20
0.73228726295953
 30
0.0
 10
2.385799198155045
 20
0.7306750524396686
 30
0.0
  0
SPLINE
  5
101
330
1B
100
AcDbEntity
  8
0
  6
Continuous
 62
     7
370
    25
100
AcDbSpline
210
0.0
220
0.0
230
1.0
 70
     8
 71
     3
 72
    11
 73
     7
 74
     0
 42
0.000000001
 43
0.00000001
 40
0.0
 40
0.0
 40
0.0
 40
0.0
 40
0.2750683690187345
 40
0.5329014600899377
 40
0.7739734595924438
 40
0.9999999999999999
 40
0.9999999999999999
 40
0.9999999999999999
 40
0.9999999999999999
 10
2.326203845590944
 20
0.7730735987752221
 30
0.0
 10
2.327662738282819
 20
0.7734763653819275
 30
0.0
 10
2.330489112134488
 20
0.774256661980745
 30
0.0
 10
2.334660760203927
 20
0.7751230308952897
 30
0.0
 10
2.338621083175225
 20
0.7756452924723565
 30
0.0
 10
2.34119097964808
 20
0.7757166039098453
 30
0.0
 10
2.342434539110023
 20
0.775751111141466
 30
0.0
  0
SPLINE
  5
117
330
1B
100
AcDbEntity
  8
0
  6
Continuous
 62
     7
370
    25
100
AcDbSpline
210
0.0
220
0.0
230
1.0
 70
     8
 71
     3
 72
    15
 73
    11
 74
     0
 42
0.000000001
 43
0.00000001
 40
0.0
 40
0.0
 40
0.0
 40
0.0
 40
0.0751731173762226
 40
0.1647462575117983
 40
0.2680168809877767
 40
0.3859118756529559
 40
0.517789479273396
 40
0.6636909770022826
 40
0.8244132205366402
 40
1.0
 40
1.0
 40
1.0
 40
1.0
 10
1.762960135970508
 20
0.7515154837439322
 30
0.0
 10
1.762096855104706
 20
0.7513319018117302
 30
0.0
 10
1.760204924893659
 20
0.7509295713333298
 30
0.0
 10
1.757089069689811
 20
0.750480419489043
 30
0.0
 10
1.753461298590211
 20
0.7500970493833163
 30
0.0
 10
1.749326563160464
 20
0.7498096030218577
 30
0.0
 10
1.744688574777724
 20
0.7495635255233519
 30
0.0
 10
1.739544824489152
 20
0.7493679312756888
 30
0.0
 10
1.733885215151386
 20
0.7492604567152499
 30
0.0
 10
1.729937528376662
 20
0.749254913691689
 30
0.0
 10
1.72787644300665
 20
0.749252019681746
 30
0.0
  0
SPLINE
  5
118
330
1B
100
AcDbEntity
  8
0
  6
Continuous
 62
     7
370
    25
100
AcDbSpline
210
0.0
220
0.0
230
1.0
 70
     8
 71
     3
 72
    23
 73
    19
 74
     0
 42
0.000000001
 43
0.00000001
 40
0.0
 40
0.0
 40
0.0
 40
0.0
 40
0.0701188944197163
 40
0.1371923527859721
 40
0.2020161807247501
 40
0.2646314069747441
 40
0.3261165471458178
 40
0.3860103046676407
 40
0.4458118469576796
 40
0.5052976967309621
 40
0.5646332777264885
 40
0.6242826253338406
 40
0.6839020319037515
 40
0.7439527709382735
 40
0.8053877310076334
 40
0.8683880308962835
 40
0.9330840282524792
 40
1.0
 40
1.0
 40
1.0
 40
1.0
 10
1.790452943359971
 20
0.7864887638267105
 30
0.0
 10
1.790436351835207
 20
0.78535578048862
 30
0.0
 10
1.790403889396413
 20
0.7831390220655693
 30
0.0
 10
1.790014271863781
 20
0.7798959989085334
 30
0.0
 10
1.789489461170134
 20
0.776796849690754
 30
0.0
 10
1.788682490606071
 20
0.7738484461289653
 30
0.0
 10
1.787625574342351
 20
0.7710682976852341
 30
0.0
 10
1.786385729742126
 20
0.7684139184718201
 30
0.0
 10
1.784890315160642
 20
0.7659304668222683
 30
0.0
 10
1.783172014778339
 20
0.763608926761573
 30
0.0
 10
1.781260534684131
 20
0.7614471191901493
 30
0.0
 10
1.779163962316126
 20
0.7594607099581523
 30
0.0
 10
1.77689076182399
 20
0.7576613265556917
 30
0.0
 10
1.774448157569016
 20
0.7560449350722137
 30
0.0
 10
1.771812336748679
 20
0.7546490185565543
 30
0.0
 10
1.769023275584471
 20
0.7533987309610625
 30
0.0
 10
1.76605673163085
 20
0.7523486892036402
 30
0.0
 10
1.76400387674993
 20
0.7517963245805526
 30
0.0
 10
1.762960135970508
 20
0.7515154837439322
 30
0.0
  0
SPLINE
  5
119
330
1B
100
AcDbEntity
  8
0
  6
Continuous
 62
     7
370
    25
100
AcDbSpline
210
0.0
220
0.0
230
1.0
 70
     8
 71
     3
 72
    23
 73
    19
 74
     0
 42
0.000000001
 43
0.00000001
 40
0.0
 40
0.0
 40
0.0
 40
0.0
 40
0.0624813386352046
 40
0.1234903826872901
 40
0.1834110942063116
 40
0.2431532209997767
 40
0.3021267353720881
 40
0.3617096708329089
 40
0.4218422916948808
 40
0.4829319014466699
 40
0.5445522544313247
 40
0.6056807199653612
 40
0.6676797383436875
 40
0.7299843875380626
 40
0.7945509212861301
 40
0.8603456197120847
 40
0.9289073562657101
 40
1.0
 40
1.0
 40
1.0
 40
1.0
 10
1.764064264781332
 20
0.8213792342486742
 30
0.0
 10
1.765016766111459
 20
0.8211185275623869
 30
0.0
 10
1.76689932426942
 20
0.8206032574167368
 30
0.0
 10
1.769611963761608
 20
0.8195712210594305
 30
0.0
 10
1.772192823819894
 20
0.8183475137690597
 30
0.0
 10
1.774650759191749
 20
0.81695287046784
 30
0.0
 10
1.776955565611863
 20
0.8153274545549637
 30
0.0
 10
1.779141630216823
 20
0.8135371546439665
 30
0.0
 10
1.781189660937127
 20
0.8115406361962324
 30
0.0
 10
1.783088140932564
 20
0.80936029210775
 30
0.0
 10
1.784831636900437
 20
0.8070327247895819
 30
0.0
 10
1.786332805511744
 20
0.8045231881790542
 30
0.0
 10
1.787589782953999
 20
0.801873924264887
 30
0.0
 10
1.788667864508495
 20
0.7990867757941248
 30
0.0
 10
1.789443787912791
 20
0.7961383378613941
 30
0.0
 10
1.790028311523244
 20
0.79304909721674
 30
0.0
 10
1.790399320484489
 20
0.789819385004084
 30
0.0
 10
1.790434854411857
 20
0.7876123036056242
 30
0.0
 10
1.790452943359971
 20
0.7864887638267105
 30
0.0
  0
SPLINE
  5
11A
330
1B
100
AcDbEntity
  8
0
  6
Continuous
 62
     7
370
    25
100
AcDbSpline
210
0.0
220
0.0
230
1.0
 70
     8
 71
     3
 72
    15
 73
    11
 74
     0
 42
0.000000001
 43
0.00000001
 40
0.0
 40
0.0
 40
0.0
 40
0.0
 40
0.176955752131249
 40
0.339055079642582
 40
0.4863182249420763
 40
0.6187809228353803
 40
0.7356188277673829
 40
0.8387424767201159
 40
0.9264570678763135
 40
1.0
 40
1.0
 40
1.0
 40
1.0
 10
1.732679403333725
 20
0.8234494757689687
 30
0.0
 10
1.73453810042631
 20
0.8234474326098764
 30
0.0
 10
1.738099446599958
 20
0.8234435178263287
 30
0.0
 10
1.743206338557001
 20
0.8233248270457884
 30
0.0
 10
1.747844516967488
 20
0.823166295861037
 30
0.0
 10
1.752003980783498
 20
0.8229465362865019
 30
0.0
 10
1.755697527952264
 20
0.8226868280090408
 30
0.0
 10
1.758908445257245
 20
0.8223225744902443
 30
0.0
 10
1.76166197109716
 20
0.8219422478936576
 30
0.0
 10
1.763311831311592
 20
0.8215555783456499
 30
0.0
 10
1.764064264781332
 20
0.8213792342486742
 30
0.0
  0
SPLINE
  5
11D
330
1B
100
AcDbEntity
  8
0
  6
Continuous
 62
     7
370
    25
100
AcDbSpline
210
0.0
220
0.0
230
1.0
 70
     8
 71
     3
 72
    23
 73
    19
 74
     0
 42
0.000000001
 43
0.00000001
 40
0.0
 40
0.0
 40
0.0
 40
0.0
 40
0.0645578459297197
 40
0.1270135315497586
 40
0.1879548102020905
 40
0.2480139127896344
 40
0.3077476818488376
 40
0.3682345146974855
 40
0.4294698439426691
 40
0.4927434367465851
 40
0.5562577687060836
 40
0.6182167855431431
 40
0.6796554755875551
 40
0.7412455456206297
 40
0.8034152647056982
 40
0.8668154615439917
 40
0.9323283119492665
 40
1.0
 40
1.0
 40
1.0
 40
1.0
 10
1.426532087313129
 20
0.755352331361534
 30
0.0
 10
1.426593315405928
 20
0.7578308925245761
 30
0.0
 10
1.426713777856064
 20
0.7627073068774157
 30
0.0
 10
1.427737234370702
 20
0.7698637617313185
 30
0.0
 10
1.429383643669579
 20
0.7767201160168804
 30
0.0
 10
1.431722103850483
 20
0.7832635705282116
 30
0.0
 10
1.434686881460934
 20
0.7895285421908935
 30
0.0
 10
1.438349346572725
 20
0.7954671723029697
 30
0.0
 10
1.44266695059719
 20
0.8011174400059834
 30
0.0
 10
1.447605831214654
 20
0.8063936113169089
 30
0.0
 10
1.453021868037481
 20
0.8112179952784158
 30
0.0
 10
1.458821821340199
 20
0.8154623340086653
 30
0.0
 10
1.464994338937545
 20
0.8189945196779199
 30
0.0
 10
1.471471419712175
 20
0.8219471244978469
 30
0.0
 10
1.47830156465574
 20
0.8242165915504399
 30
0.0
 10
1.485470201235484
 20
0.8258052996877601
 30
0.0
 10
1.492963859297739
 20
0.8267941625338188
 30
0.0
 10
1.498076553220939
 20
0.8269191707189693
 30
0.0
 10
1.500674336959809
 20
0.8269826879635939
 30
0.0
  0
SPLINE
  5
11E
330
1B
100
AcDbEntity
  8
0
  6
Continuous
 62
     7
370
    25
100
AcDbSpline
210
0.0
220
0.0
230
1.0
 70
     8
 71
     3
 72
    15
 73
    11
 74
     0
 42
0.000000001
 43
0.00000001
 40
0.0
 40
0.0
 40
0.0
 40
0.0
 40
0.1243285095938526
 40
0.2471560163611893
 40
0.3687797492913398
 40
0.4907338624016506
 40
0.6136137718478442
 40
0.7389575757222169
 40
0.867310575191264
 40
1.0
 40
1.0
 40
1.0
 40
1.0
 10
1.444004925744384
 20
0.7062185992799668
 30
0.0
 10
1.442609821669587
 20
0.7079328193160759
 30
0.0
 10
1.43983645644015
 20
0.7113405638203311
 30
0.0
 10
1.436288201182229
 20
0.7168636339486154
 30
0.0
 10
1.43325089585903
 20
0.7226300988649882
 30
0.0
 10
1.430795150946503
 20
0.7286702535413002
 30
0.0
 10
1.428875358302618
 20
0.7349705443775391
 30
0.0
 10
1.427545389992395
 20
0.7415341473070929
 30
0.0
 10
1.426681153595629
 20
0.7483549324331656
 30
0.0
 10
1.426582323328654
 20
0.752994176081193
 30
0.0
 10
1.426532087313129
 20
0.755352331361534
 30
0.0
  0
SPLINE
  5
11F
330
1B
100
AcDbEntity
  8
0
  6
Continuous
 62
     7
370
    25
100
AcDbSpline
210
0.0
220
0.0
230
1.0
 70
     8
 71
     3
 72
    23
 73
    19
 74
     0
 42
0.000000001
 43
0.00000001
 40
0.0
 40
0.0
 40
0.0
 40
0.0
 40
0.0696628008990779
 40
0.1377495622582704
 40
0.2039167435177819
 40
0.2687798623293343
 40
0.3324137064772238
 40
0.394753540447139
 40
0.4561800316591675
 40
0.5169956491967188
 40
0.577395937965952
 40
0.6371983435092768
 40
0.6969991842614537
 40
0.7567561942255608
 40
0.816553905272608
 40
0.8769479965978705
 40
0.9381317879205954
 40
1.0
 40
1.0
 40
1.0
 40
1.0
 10
1.500839956281431
 20
0.6821209879837823
 30
0.0
 10
1.499357922145302
 20
0.6821313026513343
 30
0.0
 10
1.496427383165114
 20
0.6821516986291224
 30
0.0
 10
1.492100660660701
 20
0.6824820989208951
 30
0.0
 10
1.487888472440164
 20
0.6829328759645952
 30
0.0
 10
1.483802857248562
 20
0.683611621282075
 30
0.0
 10
1.479821519648307
 20
0.6844125795519118
 30
0.0
 10
1.475980551754965
 20
0.6854862510725906
 30
0.0
 10
1.472242157646367
 20
0.6866889741669271
 30
0.0
 10
1.468621356831556
 20
0.6881025563222286
 30
0.0
 10
1.46511506943799
 20
0.6896976816189774
 30
0.0
 10
1.461734604423506
 20
0.6915004988985498
 30
0.0
 10
1.458481516533782
 20
0.6934958479009626
 30
0.0
 10
1.455323822799323
 20
0.6956397459491365
 30
0.0
 10
1.45230816989873
 20
0.6980010570463986
 30
0.0
 10
1.449408424806315
 20
0.70054698753867
 30
0.0
 10
1.446608327316842
 20
0.7032689564658868
 30
0.0
 10
1.444875938143939
 20
0.7052317459675547
 30
0.0
 10
1.444004925744384
 20
0.7062185992799668
 30
0.0
  0
SPLINE
  5
120
330
1B
100
AcDbEntity
  8
0
  6
Continuous
 62
     7
370
    25
100
AcDbSpline
210
0.0
220
0.0
230
1.0
 70
     8
 71
     3
 72
    23
 73
    19
 74
     0
 42
0.000000001
 43
0.00000001
 40
0.0
 40
0.0
 40
0.0
 40
0.0
 40
0.0616742388774271
 40
0.1230530616348066
 40
0.1834750007317014
 40
0.2437265005106097
 40
0.3042789165122533
 40
0.3648629209606827
 40
0.4259462039686197
 40
0.4873912299654072
 40
0.5492203840754748
 40
0.6111435886926032
 40
0.6735285303101501
 40
0.7369614566573038
 40
0.8007852828728407
 40
0.8660125956416117
 40
0.9321007477905755
 40
1.0
 40
1.0
 40
1.0
 40
1.0
 10
1.560794150709051
 20
0.7110215596070422
 30
0.0
 10
1.559923358981447
 20
0.7098979985076986
 30
0.0
 10
1.558185946569422
 20
0.707656258103207
 30
0.0
 10
1.555372638814054
 20
0.7044959545707629
 30
0.0
 10
1.55240896568824
 20
0.7015233547479612
 30
0.0
 10
1.549272914113165
 20
0.698762424778376
 30
0.0
 10
1.546000560113573
 20
0.6961579182585014
 30
0.0
 10
1.542533146241734
 20
0.6937838304130004
 30
0.0
 10
1.538916255198219
 20
0.691607023945191
 30
0.0
 10
1.53516214185548
 20
0.6896138379407786
 30
0.0
 10
1.531274794894863
 20
0.6878454423886312
 30
0.0
 10
1.527258872259351
 20
0.6863315145228048
 30
0.0
 10
1.523131684247384
 20
0.6850273850136512
 30
0.0
 10
1.518893042183917
 20
0.6839544741190086
 30
0.0
 10
1.514534154119864
 20
0.683117029872022
 30
0.0
 10
1.510070749628006
 20
0.682557200153725
 30
0.0
 10
1.505493195485524
 20
0.6821736602153454
 30
0.0
 10
1.502404950559313
 20
0.6821387028996475
 30
0.0
 10
1.500839956281431
 20
0.6821209879837823
 30
0.0
  0
SPLINE
  5
122
330
1B
100
AcDbEntity
  8
0
  6
Continuous
 62
     7
370
    25
100
AcDbSpline
210
0.0
220
0.0
230
1.0
 70
     8
 71
     3
 72
    15
 73
    11
 74
     0
 42
0.000000001
 43
0.00000001
 40
0.0
 40
0.0
 40
0.0
 40
0.0
 40
0.1285151895116617
 40
0.2529486363526599
 40
0.3747547340060054
 40
0.4959397538670512
 40
0.6171806414298954
 40
0.7409094692781394
 40
0.8678111481862048
 40
1.0
 40
1.0
 40
1.0
 40
1.0
 10
1.500757146620622
 20
0.6962538367623005
 30
0.0
 10
1.503162764297532
 20
0.6963203241540695
 30
0.0
 10
1.507897595357372
 20
0.6964511872461775
 30
0.0
 10
1.514841218441674
 20
0.6975598191014072
 30
0.0
 10
1.521488295828636
 20
0.6993573749216854
 30
0.0
 10
1.527839185062548
 20
0.7018730411547214
 30
0.0
 10
1.533875982157227
 20
0.7051433280800287
 30
0.0
 10
1.539608134137899
 20
0.7091078114425261
 30
0.0
 10
1.545040479433331
 20
0.7138042024960926
 30
0.0
 10
1.548307065348148
 20
0.7173901524274797
 30
0.0
 10
1.549973688362999
 20
0.7192197160273953
 30
0.0
  0
SPLINE
  5
123
330
1B
100
AcDbEntity
  8
0
  6
Continuous
 62
     7
370
    25
100
AcDbSpline
210
0.0
220
0.0
230
1.0
 70
     8
 71
     3
 72
    23
 73
    19
 74
     0
 42
0.000000001
 43
0.00000001
 40
0.0
 40
0.0
 40
0.0
 40
0.0
 40
0.0643232165798417
 40
0.1262901037035555
 40
0.1867264692161325
 40
0.2461464323353446
 40
0.3055756426461389
 40
0.3654293856180523
 40
0.4263263089482605
 40
0.4888399064006425
 40
0.5517249718140491
 40
0.6139185964661598
 40
0.6754837657683953
 40
0.7373338970992854
 40
0.8002290443945282
 40
0.8645022981233229
 40
0.9310407391556977
 40
1.0
 40
1.0
 40
1.0
 40
1.0
 10
1.438898329994332
 20
0.7544138218723346
 30
0.0
 10
1.438948007908659
 20
0.7523771557336458
 30
0.0
 10
1.439045543903993
 20
0.7483784319206769
 30
0.0
 10
1.439913588552831
 20
0.7425213212694476
 30
0.0
 10
1.44123268663506
 20
0.7369102711206161
 30
0.0
 10
1.443209677853
 20
0.7315803560690055
 30
0.0
 10
1.445647435749083
 20
0.7264658537832596
 30
0.0
 10
1.448727774784725
 20
0.7216533004995387
 30
0.0
 10
1.452295354995916
 20
0.7170699711880634
 30
0.0
 10
1.456400647100681
 20
0.7128241858436347
 30
0.0
 10
1.460904813084509
 20
0.7089456927216636
 30
0.0
 10
1.465737408029154
 20
0.7055303154968078
 30
0.0
 10
1.470886395737187
 20
0.7026832728800194
 30
0.0
 10
1.476294924484694
 20
0.7003141411274112
 30
0.0
 10
1.482004614009048
 20
0.6984930101173493
 30
0.0
 10
1.488005196781247
 20
0.6972109580109211
 30
0.0
 10
1.494283621791092
 20
0.6963746516903865
 30
0.0
 10
1.49857375564503
 20
0.6962945852309714
 30
0.0
 10
1.500757146620622
 20
0.6962538367623005
 30
0.0
  0
SPLINE
  5
124
330
1B
100
AcDbEntity
  8
0
  6
Continuous
 62
     7
370
    25
100
AcDbSpline
210
0.0
220
0.0
230
1.0
 70
     8
 71
     3
 72
    31
 73
    27
 74
     0
 42
0.000000001
 43
0.00000001
 40
0.0
 40
0.0
 40
0.0
 40
0.0
 40
0.0439549089061927
 40
0.0875018747976045
 40
0.1304626267314893
 40
0.1727520205665155
 40
0.2154030673796034
 40
0.2576498297432394
 40
0.3001527489572933
 40
0.3431214895020862
 40
0.3859251632064338
 40
0.4276857274028008
 40
0.4688179504865901
 40
0.5094918001549951
 40
0.5498830310733483
 40
0.5899800229668852
 40
0.6304052300068401
 40
0.670868626082637
 40
0.711383943838175
 40
0.7516272580635843
 40
0.7917755768651902
 40
0.8324589188037415
 40
0.8733190450172884
 40
0.9145429556263486
 40
0.9569235582098846
 40
1.0
 40
1.0
 40
1.0
 40
1.0
 10
1.499901446792232
 20
0.8128498391850769
 30
0.0
 10
1.498520214534736
 20
0.8128339351492576
 30
0.0
 10
1.49577056915793
 20
0.812802274682069
 30
0.0
 10
1.491689920594919
 20
0.8123845925873869
 30
0.0
 10
1.487685469762975
 20
0.8117975370738212
 30
0.0
 10
1.483759821486652
 20
0.8109264613563621
 30
0.0
 10
1.479917972725263
 20
0.8098251771407148
 30
0.0
 10
1.476134807289608
 20
0.8085092159626149
 30
0.0
 10
1.47246509863618
 20
0.8068810726610409
 30
0.0
 10
1.468858081383649
 20
0.8050815348674603
 30
0.0
 10
1.465402206935014
 20
0.8030489583027648
 30
0.0
 10
1.462132323164256
 20
0.8008318972050646
 30
0.0
 10
1.459060355923264
 20
0.7984551611247583
 30
0.0
 10
1.456183875130618
 20
0.7959098419760277
 30
0.0
 10
1.453499940156779
 20
0.7932074025872256
 30
0.0
 10
1.451027998786496
 20
0.7903190426821447
 30
0.0
 10
1.44877660468156
 20
0.7872539964806794
 30
0.0
 10
1.446701131253867
 20
0.7840526812224767
 30
0.0
 10
1.444842362224154
 20
0.7807244217092908
 30
0.0
 10
1.443286067759943
 20
0.777256899251083
 30
0.0
 10
1.441907913342401
 20
0.7737094936199386
 30
0.0
 10
1.440817391978385
 20
0.7700421250833747
 30
0.0
 10
1.439954222024393
 20
0.7662805988690756
 30
0.0
 10
1.439358644730163
 20
0.7624148198159266
 30
0.0
 10
1.43894571279338
 20
0.758452863926271
 30
0.0
 10
1.438914209765791
 20
0.7557674579178292
 30
0.0
 10
1.438898329994332
 20
0.7544138218723346
 30
0.0
  0
SPLINE
  5
125
330
1B
100
AcDbEntity
  8
0
  6
Continuous
 62
     7
370
    25
100
AcDbSpline
210
0.0
220
0.0
230
1.0
 70
     8
 71
     3
 72
    19
 73
    15
 74
     0
 42
0.000000001
 43
0.00000001
 40
0.0
 40
0.0
 40
0.0
 40
0.0
 40
0.0631632593634685
 40
0.1254749410306404
 40
0.1871212198160327
 40
0.248294346114299
 40
0.3092948562551212
 40
0.3698500660670924
 40
0.43097337554738
 40
0.4924559896728168
 40
0.6161479662918543
 40
0.7408436984673639
 40
0.8681826486700396
 40
1.0
 40
1.0
 40
1.0
 40
1.0
 10
1.549973688362998
 20
0.7898839599199851
 30
0.0
 10
1.549201802994645
 20
0.7908038799920759
 30
0.0
 10
1.547668438946419
 20
0.7926313176189782
 30
0.0
 10
1.545201541209258
 20
0.7951974414172032
 30
0.0
 10
1.542630610386575
 20
0.7976015855677014
 30
0.0
 10
1.539956629236338
 20
0.7998552028759287
 30
0.0
 10
1.537131467051813
 20
0.801879484991471
 30
0.0
 10
1.534223561592524
 20
0.803779922115207
 30
0.0
 10
1.531184268474156
 20
0.8054833763649117
 30
0.0
 10
1.526981444275517
 20
0.8075488482592401
 30
0.0
 10
1.521483497492823
 20
0.8097042086927919
 30
0.0
 10
1.514562440836402
 20
0.8115114225235103
 30
0.0
 10
1.507337594439367
 20
0.812661862511082
 30
0.0
 10
1.502408555083974
 20
0.8127864625685298
 30
0.0
 10
1.499901446792232
 20
0.8128498391850769
 30
0.0
  0
SPLINE
  5
127
330
1B
100
AcDbEntity
  8
0
  6
Continuous
 62
     7
370
    25
100
AcDbSpline
210
0.0
220
0.0
230
1.0
 70
     8
 71
     3
 72
    23
 73
    19
 74
     0
 42
0.000000001
 43
0.00000001
 40
0.0
 40
0.0
 40
0.0
 40
0.0
 40
0.0685475367089021
 40
0.1356829456230509
 40
0.2012149895263272
 40
0.2656822347546958
 40
0.3292668348172594
 40
0.3923954278443311
 40
0.4550697616521441
 40
0.5171268500645054
 40
0.5787900352866543
 40
0.6397398633435436
 40
0.7001915036663074
 40
0.7598062425966711
 40
0.8196283192750075
 40
0.8793547910462776
 40
0.9395116077646627
 40
1.0
 40
1.0
 40
1.0
 40
1.0
 10
1.500674336959809
 20
0.8269826879635939
 30
0.0
 10
1.502257583886833
 20
0.8269637061450578
 30
0.0
 10
1.505391461733084
 20
0.826926133546883
 30
0.0
 10
1.510027392930423
 20
0.8265597499990638
 30
0.0
 10
1.514540870369132
 20
0.8259489781003583
 30
0.0
 10
1.518935003520091
 20
0.825117636769131
 30
0.0
 10
1.523231169512331
 20
0.8240858524593052
 30
0.0
 10
1.527396533326449
 20
0.8227417462263713
 30
0.0
 10
1.531455536746315
 20
0.8212048749147326
 30
0.0
 10
1.535382580375309
 20
0.8194348565707203
 30
0.0
 10
1.539158822506818
 20
0.8174479769877733
 30
0.0
 10
1.542783087015134
 20
0.8152662595253218
 30
0.0
 10
1.54622658538945
 20
0.812892408914909
 30
0.0
 10
1.549513547926321
 20
0.8103466146074436
 30
0.0
 10
1.552588989307272
 20
0.8075750177847902
 30
0.0
 10
1.555540228619678
 20
0.8046538525889738
 30
0.0
 10
1.55826704272053
 20
0.8014989776221518
 30
0.0
 10
1.559950239373842
 20
0.7992783109328226
 30
0.0
 10
1.560794150709052
 20
0.7981649260011457
 30
0.0
  0
CIRCLE
  5
128
330
1B
100
AcDbEntity
  8
0
  6
Continuous
 62
     7
370
    25
100
AcDbCircle
 10
0.6
 20
1.2677165354
 30
0.0
 40
0.1968503937007866
  0
CIRCLE
  5
129
330
1B
100
AcDbEntity
  8
0
  6
Continuous
 62
     7
370
    25
100
AcDbCircle
 10
0.6
 20
0.2677165354
 30
0.0
 40
0.1968503937007873
  0
CIRCLE
  5
12A
330
1B
100
AcDbEntity
  8
0
  6
Continuous
 62
     7
370
    25
100
AcDbCircle
 10
3.1
 20
0.2677165354
 30
0.0
 40
0.1968503937007866
  0
CIRCLE
  5
12B
330
1B
100
AcDbEntity
  8
0
  6
Continuous
 62
     7
370
    25
100
AcDbCircle
 10
3.1
 20
1.2677165354
 30
0.0
 40
0.1968503937007888
  0
SPLINE
  5
138
330
1B
100
AcDbEntity
  8
0
  6
Continuous
 62
     7
370
    25
100
AcDbSpline
210
0.0
220
0.0
230
1.0
 70
     8
 71
     3
 72
    23
 73
    19
 74
     0
 42
0.000000001
 43
0.00000001
 40
0.0
 40
0.0
 40
0.0
 40
0.0
 40
0.0787802355821393
 40
0.1537206442085838
 40
0.2267135303087814
 40
0.299191166065936
 40
0.37118999683767
 40
0.4430064143534101
 40
0.5166891732948797
 40
0.5932172166234104
 40
0.6338729178078448
 40
0.6769891422899815
 40
0.7228995063258276
 40
0.771958610506146
 40
0.8242113233348377
 40
0.8793786506272033
 40
0.9379481193304172
 40
1.0
 40
1.0
 40
1.0
 40
1.0
 10
1.675623547034512
 20
0.7865991767077883
 30
0.0
 10
1.675565712463311
 20
0.7847631489672009
 30
0.0
 10
1.675452862235372
 20
0.7811805833023183
 30
0.0
 10
1.67440069279915
 20
0.7759813360027594
 30
0.0
 10
1.672677207770461
 20
0.7711313629854167
 30
0.0
 10
1.670302275132296
 20
0.7666367709415016
 30
0.0
 10
1.667277886324678
 20
0.7625851707304724
 30
0.0
 10
1.663643052029271
 20
0.7590264913878014
 30
0.0
 10
1.659395744490306
 20
0.756048542073202
 30
0.0
 10
1.655441834413964
 20
0.7539834710219616
 30
0.0
 10
1.651949149386537
 20
0.7526609155642927
 30
0.0
 10
1.649073822111417
 20
0.7517303502548816
 30
0.0
 10
1.645937326934418
 20
0.7510113752439743
 30
0.0
 10
1.642569715335759
 20
0.7503672755679669
 30
0.0
 10
1.638956972993551
 20
0.749880988386412
 30
0.0
 10
1.635107758844369
 20
0.7495248232498223
 30
0.0
 10
1.63101932767783
 20
0.7493022229073723
 30
0.0
 10
1.628210702900146
 20
0.7492690731085935
 30
0.0
 10
1.626765847155649
 20
0.7492520196817428
 30
0.0
  0
SPLINE
  5
139
330
1B
100
AcDbEntity
  8
0
  6
Continuous
 62
     7
370
    25
100
AcDbSpline
210
0.0
220
0.0
230
1.0
 70
     8
 71
     3
 72
    23
 73
    19
 74
     0
 42
0.000000001
 43
0.00000001
 40
0.0
 40
0.0
 40
0.0
 40
0.0
 40
0.064216842631429
 40
0.1270637656931317
 40
0.1887445383478328
 40
0.2491321028350398
 40
0.309452532710627
 40
0.3698266762476831
 40
0.4306501418384692
 40
0.4923519318794697
 40
0.5540721062625168
 40
0.6156897837449763
 40
0.6767977025065365
 40
0.7384390482469437
 40
0.8013169100648924
 40
0.8651845117115421
 40
0.9316413244190763
 40
1.0
 40
1.0
 40
1.0
 40
1.0
 10
1.647854707442346
 20
0.8215724567905669
 30
0.0
 10
1.648862842250881
 20
0.8213233715399547
 30
0.0
 10
1.650857605615911
 20
0.8208305147032638
 30
0.0
 10
1.653729655460001
 20
0.8197887981354046
 30
0.0
 10
1.65646643986755
 20
0.8185833011029343
 30
0.0
 10
1.659056590431395
 20
0.8171674066022244
 30
0.0
 10
1.661487133391649
 20
0.8155306042529131
 30
0.0
 10
1.663783129879628
 20
0.8137011506137334
 30
0.0
 10
1.665954998516633
 20
0.8116890558983613
 30
0.0
 10
1.667914905216651
 20
0.8094435896974683
 30
0.0
 10
1.669762899377853
 20
0.8070878215998305
 30
0.0
 10
1.671321506720396
 20
0.8045404295982094
 30
0.0
 10
1.672665068914191
 20
0.8018765899319095
 30
0.0
 10
1.673734774307901
 20
0.7990692112801207
 30
0.0
 10
1.674596111846212
 20
0.7961455194745034
 30
0.0
 10
1.67520344410491
 20
0.7930790314143771
 30
0.0
 10
1.675567664090379
 20
0.7898837174346972
 30
0.0
 10
1.675604745017682
 20
0.78770427220668
 30
0.0
 10
1.675623547034512
 20
0.7865991767077883
 30
0.0
  0
SPLINE
  5
13A
330
1B
100
AcDbEntity
  8
0
  6
Continuous
 62
     7
370
    25
100
AcDbSpline
210
0.0
220
0.0
230
1.0
 70
     8
 71
     3
 72
    15
 73
    11
 74
     0
 42
0.000000001
 43
0.00000001
 40
0.0
 40
0.0
 40
0.0
 40
0.0
 40
0.1762577548178
 40
0.3384344138804702
 40
0.4848220507878403
 40
0.6171575782663318
 40
0.7346983606124763
 40
0.8373851838323644
 40
0.926372420929588
 40
1.0
 40
1.0
 40
1.0
 40
1.0
 10
1.616635465316362
 20
0.8234494757689643
 30
0.0
 10
1.618475667226345
 20
0.8234433503363644
 30
0.0
 10
1.62200905873851
 20
0.8234315888272401
 30
0.0
 10
1.62707099851645
 20
0.8233660076103819
 30
0.0
 10
1.631670490524333
 20
0.8231780408502144
 30
0.0
 10
1.635805129867524
 20
0.8230162855952105
 30
0.0
 10
1.639474840693365
 20
0.8227213272754023
 30
0.0
 10
1.642690875762181
 20
0.8224394120344669
 30
0.0
 10
1.6454384229079
 20
0.8220703702715145
 30
0.0
 10
1.647101645400125
 20
0.8217276370838901
 30
0.0
 10
1.647854707442346
 20
0.8215724567905669
 30
0.0
  0
SPLINE
  5
143
330
1B
100
AcDbEntity
  8
0
  6
Continuous
 62
     7
370
    25
100
AcDbSpline
210
0.0
220
0.0
230
1.0
 70
     8
 71
     3
 72
    23
 73
    19
 74
     0
 42
0.000000001
 43
0.00000001
 40
0.0
 40
0.0
 40
0.0
 40
0.0
 40
0.0619654006870649
 40
0.1221219056382981
 40
0.1809884968498425
 40
0.2399332164519051
 40
0.2999058311065275
 40
0.3599888474769886
 40
0.4217757417416483
 40
0.4865758264211326
 40
0.551534804619745
 40
0.6150175427599813
 40
0.6772586166616602
 40
0.7397299623627169
 40
0.8030501026629548
 40
0.8664951320157019
 40
0.9319734741771568
 40
1.0
 40
1.0
 40
1.0
 40
1.0
 10
2.097842404292741
 20
0.7849153802712868
 30
0.0
 10
2.097817375068352
 20
0.7858555928071441
 30
0.0
 10
2.097768047273407
 20
0.7877085711678267
 30
0.0
 10
2.097332704852393
 20
0.7904253333339147
 30
0.0
 10
2.096674810911664
 20
0.793045995295165
 30
0.0
 10
2.095732084216863
 20
0.7955786180950801
 30
0.0
 10
2.094487724370983
 20
0.7979977382551655
 30
0.0
 10
2.092973024374226
 20
0.8003063004679067
 30
0.0
 10
2.091225384082186
 20
0.802538149491532
 30
0.0
 10
2.089203680565222
 20
0.8046307990213767
 30
0.0
 10
2.086982754588586
 20
0.8065473819143879
 30
0.0
 10
2.084636524289955
 20
0.8082451805527482
 30
0.0
 10
2.082154236720666
 20
0.8096640431826235
 30
0.0
 10
2.079546357894845
 20
0.8108271729928753
 30
0.0
 10
2.07682015831184
 20
0.8117395895754071
 30
0.0
 10
2.073970365196786
 20
0.8123718171117522
 30
0.0
 10
2.07100485274472
 20
0.8127687652986273
 30
0.0
 10
2.068979911969498
 20
0.8128224728540755
 30
0.0
 10
2.06794811673974
 20
0.8128498391850757
 30
0.0
  0
SPLINE
  5
144
330
1B
100
AcDbEntity
  8
0
  6
Continuous
 62
     7
370
    25
100
AcDbSpline
210
0.0
220
0.0
230
1.0
 70
     8
 71
     3
 72
    19
 73
    15
 74
     0
 42
0.000000001
 43
0.00000001
 40
0.0
 40
0.0
 40
0.0
 40
0.0
 40
0.1108026438013179
 40
0.2128292023477713
 40
0.3061013098231111
 40
0.3906473211160099
 40
0.4669244693608511
 40
0.5344810392840323
 40
0.593586940965673
 40
0.6445570045087171
 40
0.7362004526293741
 40
0.8250240256188651
 40
0.9119855848297606
 40
1.0
 40
1.0
 40
1.0
 40
1.0
 10
2.071784964357347
 20
0.7426824532573564
 30
0.0
 10
2.073086062263167
 20
0.7440406543025763
 30
0.0
 10
2.075585205063125
 20
0.746649480546838
 30
0.0
 10
2.079119952181598
 20
0.7504582585048688
 30
0.0
 10
2.082294715500983
 20
0.7539917049911722
 30
0.0
 10
2.085130045925068
 20
0.7572431439063083
 30
0.0
 10
2.087564435900103
 20
0.7602601347643997
 30
0.0
 10
2.089724759992533
 20
0.7629449656143118
 30
0.0
 10
2.091455688771357
 20
0.7654156132642314
 30
0.0
 10
2.093334247656697
 20
0.7682794169615735
 30
0.0
 10
2.095153695743242
 20
0.7717759648818119
 30
0.0
 10
2.09671717432751
 20
0.7760489447739798
 30
0.0
 10
2.097670514817613
 20
0.7804476555092551
 30
0.0
 10
2.097784878420203
 20
0.783420176652847
 30
0.0
 10
2.097842404292737
 20
0.7849153802712857
 30
0.0
  0
SPLINE
  5
14A
330
1B
100
AcDbEntity
  8
0
  6
Continuous
 62
     7
370
    25
100
AcDbSpline
210
0.0
220
0.0
230
1.0
 70
     8
 71
     3
 72
    19
 73
    15
 74
     0
 42
0.000000001
 43
0.00000001
 40
0.0
 40
0.0
 40
0.0
 40
0.0
 40
0.098702196306153
 40
0.1956723088106648
 40
0.2924224265079553
 40
0.3913425437998233
 40
0.4444624406718913
 40
0.5042287754493142
 40
0.570352337994678
 40
0.6425457530977492
 40
0.7222875053440173
 40
0.8079211226827101
 40
0.9004695379850134
 40
1.0
 40
1.0
 40
1.0
 40
1.0
 10
2.110208646973941
 20
0.786019509082107
 30
0.0
 10
2.110141983081955
 20
0.7841003029964867
 30
0.0
 10
2.1100098251549
 20
0.780295570174811
 30
0.0
 10
2.108879337888466
 20
0.7747044338461023
 30
0.0
 10
2.107113727215418
 20
0.7692873701025325
 30
0.0
 10
2.104987847024497
 20
0.7649276337999965
 30
0.0
 10
2.102843262612621
 20
0.761414504124524
 30
0.0
 10
2.100910683573502
 20
0.7585220354268948
 30
0.0
 10
2.098648289438785
 20
0.755407646907627
 30
0.0
 10
2.09602315172372
 20
0.7520817674834551
 30
0.0
 10
2.093089574079985
 20
0.7485183460228805
 30
0.0
 10
2.089820984971461
 20
0.7447195351804262
 30
0.0
 10
2.086194076230458
 20
0.7407245836127051
 30
0.0
 10
2.08364846596454
 20
0.7379960166289328
 30
0.0
 10
2.082329394500694
 20
0.7365821415775651
 30
0.0
  0
SPLINE
  5
14B
330
1B
100
AcDbEntity
  8
0
  6
Continuous
 62
     7
370
    25
100
AcDbSpline
210
0.0
220
0.0
230
1.0
 70
     8
 71
     3
 72
    23
 73
    19
 74
     0
 42
0.000000001
 43
0.00000001
 40
0.0
 40
0.0
 40
0.0
 40
0.0
 40
0.0694754602496705
 40
0.1365167976178004
 40
0.2007888236092603
 40
0.2638296728558244
 40
0.3257350229654185
 40
0.3872906922152899
 40
0.4495092187626038
 40
0.5129678195454412
 40
0.5762752154930612
 40
0.6375801002639231
 40
0.6979026059171016
 40
0.7571720884269841
 40
0.8165985284886551
 40
0.8766531708928206
 40
0.93728964241024
 40
1.0
 40
1.0
 40
1.0
 40
1.0
 10
2.068582990805964
 20
0.8269826879635939
 30
0.0
 10
2.070093938604678
 20
0.8269473156625935
 30
0.0
 10
2.073062897055716
 20
0.8268778103546791
 30
0.0
 10
2.077396047231026
 20
0.8262809194386481
 30
0.0
 10
2.081521137564231
 20
0.8253460536262331
 30
0.0
 10
2.085430104750133
 20
0.8240344230627197
 30
0.0
 10
2.089091760835616
 20
0.8222712566299418
 30
0.0
 10
2.092533612983504
 20
0.8201532432969454
 30
0.0
 10
2.095796637030394
 20
0.8177036436366226
 30
0.0
 10
2.098733911975755
 20
0.8148196352331428
 30
0.0
 10
2.101431080449619
 20
0.811740801198875
 30
0.0
 10
2.103757940888374
 20
0.808453875859815
 30
0.0
 10
2.105750585119608
 20
0.8050590220915091
 30
0.0
 10
2.107411517398392
 20
0.8015303527379052
 30
0.0
 10
2.108634200033791
 20
0.7978346429578772
 30
0.0
 10
2.10956247594046
 20
0.7940256979660799
 30
0.0
 10
2.110087177266762
 20
0.7900640912335379
 30
0.0
 10
2.11016770575093
 20
0.7873827307749658
 30
0.0
 10
2.110208646973941
 20
0.786019509082107
 30
0.0
  0
SPLINE
  5
14C
330
1B
100
AcDbEntity
  8
0
  6
Continuous
 62
     7
370
    25
100
AcDbSpline
210
0.0
220
0.0
230
1.0
 70
     8
 71
     3
 72
    23
 73
    19
 74
     0
 42
0.000000001
 43
0.00000001
 40
0.0
 40
0.0
 40
0.0
 40
0.0
 40
0.0687907943906185
 40
0.1351032894311276
 40
0.1989786743106515
 40
0.2619042997808548
 40
0.3234949693679682
 40
0.3851953779660505
 40
0.446969238740774
 40
0.509764776703132
 40
0.5722505688473684
 40
0.6334051756611505
 40
0.6932511629217503
 40
0.7525831627856704
 40
0.8125792661534235
 40
0.8732750849201916
 40
0.9355499428950296
 40
1.0
 40
1.0
 40
1.0
 40
1.0
 10
2.023644948205519
 20
0.7810509294334108
 30
0.0
 10
2.023725544780635
 20
0.7826915155660011
 30
0.0
 10
2.023883834309218
 20
0.7859135830689493
 30
0.0
 10
2.024625105539994
 20
0.7906113746594651
 30
0.0
 10
2.02568576999688
 20
0.7951017210659559
 30
0.0
 10
2.02718543354077
 20
0.7993485680726354
 30
0.0
 10
2.029047885421469
 20
0.8033894659950882
 30
0.0
 10
2.031281351066383
 20
0.8072083642506498
 30
0.0
 10
2.033926778251953
 20
0.8107906945150068
 30
0.0
 10
2.03692704337185
 20
0.8141032474006521
 30
0.0
 10
2.040185651208665
 20
0.8171421281407866
 30
0.0
 10
2.043701633077604
 20
0.8197663502985082
 30
0.0
 10
2.047396319191237
 20
0.8219835814544935
 30
0.0
 10
2.051258500252867
 20
0.8238371736522804
 30
0.0
 10
2.055331750786704
 20
0.8252285061689174
 30
0.0
 10
2.059579107394554
 20
0.8262608541848436
 30
0.0
 10
2.064019230875242
 20
0.8268819701581365
 30
0.0
 10
2.067044428593623
 20
0.8269487333709045
 30
0.0
 10
2.068582990805964
 20
0.8269826879635939
 30
0.0
  0
SPLINE
  5
14E
330
1B
100
AcDbEntity
  8
0
  6
Continuous
 62
     7
370
    25
100
AcDbSpline
210
0.0
220
0.0
230
1.0
 70
     8
 71
     3
 72
    23
 73
    19
 74
     0
 42
0.000000001
 43
0.00000001
 40
0.0
 40
0.0
 40
0.0
 40
0.0
 40
0.0644386715952451
 40
0.1265469112716826
 40
0.1868871534365742
 40
0.2458775355894584
 40
0.3040408846912692
 40
0.3621912180726649
 40
0.4209759327916447
 40
0.4806602832796693
 40
0.5406002749537582
 40
0.600689098349455
 40
0.661935789757196
 40
0.7244425059139834
 40
0.7890383938817442
 40
0.8563137570509954
 40
0.9263520282058642
 40
0.9999999999999999
 40
0.9999999999999999
 40
0.9999999999999999
 40
0.9999999999999999
 10
2.06794811673974
 20
0.8128498391850757
 30
0.0
 10
2.066870524898941
 20
0.8128216883085428
 30
0.0
 10
2.064754312449352
 20
0.812766404635144
 30
0.0
 10
2.061647263908543
 20
0.8123796855803411
 30
0.0
 10
2.058683256919412
 20
0.8117125265095932
 30
0.0
 10
2.055854835543315
 20
0.8108000590140422
 30
0.0
 10
2.053157214054625
 20
0.8096402736273383
 30
0.0
 10
2.050603511533469
 20
0.8081957167502181
 30
0.0
 10
2.048199460775206
 20
0.8064719571772857
 30
0.0
 10
2.045940542533257
 20
0.804517604566101
 30
0.0
 10
2.043859283515008
 20
0.8023417147544513
 30
0.0
 10
2.04203066635497
 20
0.7999161256573262
 30
0.0
 10
2.040432870522545
 20
0.797285125052165
 30
0.0
 10
2.039038806212317
 20
0.7944558120376238
 30
0.0
 10
2.037906692429531
 20
0.7914025136130407
 30
0.0
 10
2.03704160776689
 20
0.788136068540264
 30
0.0
 10
2.036357086242418
 20
0.7846706598222131
 30
0.0
 10
2.036128404328839
 20
0.7822775462451805
 30
0.0
 10
2.03601119088672
 20
0.7810509294334119
 30
0.0
  0
SPLINE
  5
14F
330
1B
100
AcDbEntity
  8
0
  6
Continuous
 62
     7
370
    25
100
AcDbSpline
210
0.0
220
0.0
230
1.0
 70
     8
 71
     3
 72
    31
 73
    27
 74
     0
 42
0.000000001
 43
0.00000001
 40
0.0
 40
0.0
 40
0.0
 40
0.0
 40
0.0650632896172779
 40
0.1267731664665229
 40
0.1855157632260782
 40
0.240764679167715
 40
0.2929797960235976
 40
0.3422503727797672
 40
0.3889192861856604
 40
0.4327756640583088
 40
0.4746284326311174
 40
0.5147746906379524
 40
0.5536058934984424
 40
0.5914264064311717
 40
0.6280281199460669
 40
0.6638036341103213
 40
0.6989843361316629
 40
0.7335914893067073
 40
0.7676284691511392
 40
0.8012083477865933
 40
0.834263839726624
 40
0.8669806947287761
 40
0.8997197415181621
 40
0.9327019124985386
 40
0.9661758834327485
 40
1.0
 40
1.0
 40
1.0
 40
1.0
 10
2.281569438413476
 20
0.7544966315331465
 30
0.0
 10
2.281543785478676
 20
0.7523893910630348
 30
0.0
 10
2.281493801781372
 20
0.7482835189426059
 30
0.0
 10
2.281234797577919
 20
0.7422783624339534
 30
0.0
 10
2.280724615248047
 20
0.7366091481308612
 30
0.0
 10
2.280086426731951
 20
0.7312622795301228
 30
0.0
 10
2.279202530551897
 20
0.7262600110721321
 30
0.0
 10
2.27811571298295
 20
0.7215850327859958
 30
0.0
 10
2.276909007360044
 20
0.7172171559487736
 30
0.0
 10
2.275419448536823
 20
0.7131921633657033
 30
0.0
 10
2.273789105609768
 20
0.709453906560006
 30
0.0
 10
2.27201527898869
 20
0.7059630739485983
 30
0.0
 10
2.270114892134923
 20
0.7026888104572732
 30
0.0
 10
2.268044469103309
 20
0.6996573243576237
 30
0.0
 10
2.26583764181211
 20
0.6968471410082956
 30
0.0
 10
2.263447177686402
 20
0.6943078645259552
 30
0.0
 10
2.260940461737506
 20
0.6919783105116545
 30
0.0
 10
2.258286429618058
 20
0.6899054117926732
 30
0.0
 10
2.255514321301832
 20
0.6880910494054139
 30
0.0
 10
2.25268128677723
 20
0.686468456870461
 30
0.0
 10
2.249737059086392
 20
0.6851600830496011
 30
0.0
 10
2.246748360160032
 20
0.6840366562394536
 30
0.0
 10
2.243672440234248
 20
0.6831783707321256
 30
0.0
 10
2.24051313351419
 20
0.6825849118533606
 30
0.0
 10
2.237286510052432
 20
0.6821686973472686
 30
0.0
 10
2.235105346072854
 20
0.6821369461710768
 30
0.0
 10
2.234009089887328
 20
0.6821209879837844
 30
0.0
  0
SPLINE
  5
150
330
1B
100
AcDbEntity
  8
0
  6
Continuous
 62
     7
370
    25
100
AcDbSpline
210
0.0
220
0.0
230
1.0
 70
     8
 71
     3
 72
    31
 73
    27
 74
     0
 42
0.000000001
 43
0.00000001
 40
0.0
 40
0.0
 40
0.0
 40
0.0
 40
0.0337881161627114
 40
0.0671939323738796
 40
0.0998624108568234
 40
0.1325666121262582
 40
0.1651511732547858
 40
0.1979131873557911
 40
0.2313190035669626
 40
0.2650832782673717
 40
0.2992553087581161
 40
0.3343985665049783
 40
0.3699428235093057
 40
0.4062835607000598
 40
0.4440638196985086
 40
0.4829977068727754
 40
0.5233544466133047
 40
0.5655365896041492
 40
0.6096129240658191
 40
0.656390811376417
 40
0.7058854949364571
 40
0.7583245002617305
 40
0.8138317829411501
 40
0.872794559039389
 40
0.934722229540074
 40
1.0
 40
1.0
 40
1.0
 40
1.0
 10
2.23400908988733
 20
0.8269826879635939
 30
0.0
 10
2.235104974867027
 20
0.8269634826417169
 30
0.0
 10
2.23728434529599
 20
0.8269252892990291
 30
0.0
 10
2.240506407313549
 20
0.8265582049472727
 30
0.0
 10
2.243654032577902
 20
0.8259491056127487
 30
0.0
 10
2.246713801818196
 20
0.8250860751173668
 30
0.0
 10
2.249710848529527
 20
0.8240153791858941
 30
0.0
 10
2.252621730720299
 20
0.8226733667012814
 30
0.0
 10
2.255464529210144
 20
0.8211112065696083
 30
0.0
 10
2.25819406808888
 20
0.8192756208488756
 30
0.0
 10
2.260840312787545
 20
0.8172290745419174
 30
0.0
 10
2.26333826408566
 20
0.8149155836441472
 30
0.0
 10
2.265688149357212
 20
0.8123585080823893
 30
0.0
 10
2.267919460592891
 20
0.809585206354571
 30
0.0
 10
2.269968893553491
 20
0.8065424864792305
 30
0.0
 10
2.27192060348402
 20
0.8032832695574154
 30
0.0
 10
2.27366753403133
 20
0.79975055834506
 30
0.0
 10
2.275350001558047
 20
0.796003295831633
 30
0.0
 10
2.276802245130457
 20
0.791937797453419
 30
0.0
 10
2.278111939826216
 20
0.7875769801101853
 30
0.0
 10
2.279170166935463
 20
0.7828693349584794
 30
0.0
 10
2.280051634350354
 20
0.7778395615216648
 30
0.0
 10
2.280734504269471
 20
0.7724691881657513
 30
0.0
 10
2.2812318523828
 20
0.7667697269251323
 30
0.0
 10
2.28149457226632
 20
0.7607374280810072
 30
0.0
 10
2.281544048691777
 20
0.7566131033102543
 30
0.0
 10
2.281569438413476
 20
0.7544966315331465
 30
0.0
  0
SPLINE
  5
151
330
1B
100
AcDbEntity
  8
0
  6
Continuous
 62
     7
370
    25
100
AcDbSpline
210
0.0
220
0.0
230
1.0
 70
     8
 71
     3
 72
    31
 73
    27
 74
     0
 42
0.000000001
 43
0.00000001
 40
0.0
 40
0.0
 40
0.0
 40
0.0
 40
0.068594622258743
 40
0.1332460424433018
 40
0.194312586468257
 40
0.251279223116967
 40
0.3045134392563474
 40
0.354234906653325
 40
0.4004805887739895
 40
0.4434107549384919
 40
0.4840148686163455
 40
0.5232523007732031
 40
0.5610423727283602
 40
0.5979002393644006
 40
0.6335184888561958
 40
0.6683143511696512
 40
0.7024956712863812
 40
0.7366853535134588
 40
0.770293169360787
 40
0.8034372550192491
 40
0.8359129516660286
 40
0.8684602457892904
 40
0.900846538243184
 40
0.9334665246307078
 40
0.9662575752981218
 40
1.0
 40
1.0
 40
1.0
 40
1.0
 10
2.187939315255793
 20
0.7544966315331487
 30
0.0
 10
2.187952229356481
 20
0.7567051901053626
 30
0.0
 10
2.187977315183204
 20
0.7609953469654984
 30
0.0
 10
2.188256386873847
 20
0.7672467108263966
 30
0.0
 10
2.188719983027907
 20
0.7731112891332927
 30
0.0
 10
2.189355312667685
 20
0.7785893625993731
 30
0.0
 10
2.190128461495381
 20
0.7836823454544012
 30
0.0
 10
2.191160567267089
 20
0.7883766272314197
 30
0.0
 10
2.192334299653503
 20
0.7926939345783912
 30
0.0
 10
2.193694632165727
 20
0.7966483459357167
 30
0.0
 10
2.195229584489285
 20
0.8002931373932805
 30
0.0
 10
2.196900224675195
 20
0.8036957043733496
 30
0.0
 10
2.198772854376908
 20
0.8068508985599557
 30
0.0
 10
2.200740449374039
 20
0.8098090792851509
 30
0.0
 10
2.202882656918441
 20
0.812521823174612
 30
0.0
 10
2.205138514810852
 20
0.8150274398091993
 30
0.0
 10
2.2075960689946
 20
0.8172680205361226
 30
0.0
 10
2.210171777981742
 20
0.8193092135434081
 30
0.0
 10
2.212888961619211
 20
0.8210985628218306
 30
0.0
 10
2.215670168947683
 20
0.8226746548933156
 30
0.0
 10
2.21853454319398
 20
0.8240211063601507
 30
0.0
 10
2.221489904725398
 20
0.8250797849373003
 30
0.0
 10
2.224509690469084
 20
0.8259542277236248
 30
0.0
 10
2.227604456874254
 20
0.8265522177884485
 30
0.0
 10
2.230779313722137
 20
0.8269284740281891
 30
0.0
 10
2.232922283596082
 20
0.8269644451990606
 30
0.0
 10
2.23400908988733
 20
0.8269826879635939
 30
0.0
  0
SPLINE
  5
152
330
1B
100
AcDbEntity
  8
0
  6
Continuous
 62
     7
370
    25
100
AcDbSpline
210
0.0
220
0.0
230
1.0
 70
     8
 71
     3
 72
    31
 73
    27
 74
     0
 42
0.000000001
 43
0.00000001
 40
0.0
 40
0.0
 40
0.0
 40
0.0
 40
0.0337871463469923
 40
0.0666216577242939
 40
0.0992848780959713
 40
0.1313611650426513
 40
0.1635851875953437
 40
0.1961039269870682
 40
0.2289022543238168
 40
0.2621580559050076
 40
0.2959912222583165
 40
0.3302178457248008
 40
0.3650598258919545
 40
0.4009507373401077
 40
0.437620382076737
 40
0.4757075294370912
 40
0.5153806916250484
 40
0.5564135414931647
 40
0.599764829872731
 40
0.6464241555840876
 40
0.6964314445175666
 40
0.7497815178015587
 40
0.8065733069755322
 40
0.8674355315653995
 40
0.9318867532508747
 40
1.0
 40
1.0
 40
1.0
 40
1.0
 10
2.234009089887328
 20
0.6821209879837844
 30
0.0
 10
2.232922313746177
 20
0.6821393484349185
 30
0.0
 10
2.23077940332234
 20
0.6821755516608006
 30
0.0
 10
2.227604110982201
 20
0.6825501080186033
 30
0.0
 10
2.224522125019999
 20
0.6831522931844443
 30
0.0
 10
2.221518237065762
 20
0.6839954665738558
 30
0.0
 10
2.218577035684518
 20
0.6850275467437578
 30
0.0
 10
2.215738599202005
 20
0.6863721799564718
 30
0.0
 10
2.21297136756064
 20
0.6879207653484407
 30
0.0
 10
2.210282723622917
 20
0.689684364617661
 30
0.0
 10
2.207723189723714
 20
0.6917049033235053
 30
0.0
 10
2.205278362742854
 20
0.693939717838721
 30
0.0
 10
2.203009661203604
 20
0.6964445765512204
 30
0.0
 10
2.200898082635991
 20
0.6991799278546713
 30
0.0
 10
2.198891228770019
 20
0.7021206066866683
 30
0.0
 10
2.197045190450363
 20
0.70530676310578
 30
0.0
 10
2.195337676510676
 20
0.7087257635187566
 30
0.0
 10
2.19377690916152
 20
0.7123996970099034
 30
0.0
 10
2.192393103511327
 20
0.7163821744846979
 30
0.0
 10
2.1911707527982
 20
0.720718756315505
 30
0.0
 10
2.190205628488354
 20
0.7254477183672381
 30
0.0
 10
2.189379527884698
 20
0.730531079276899
 30
0.0
 10
2.188713213591647
 20
0.7359906828353961
 30
0.0
 10
2.188258318894074
 20
0.7418294930002334
 30
0.0
 10
2.187977164758809
 20
0.7480438713044143
 30
0.0
 10
2.187952161986362
 20
0.7523064608444372
 30
0.0
 10
2.187939315255793
 20
0.7544966315331487
 30
0.0
  0
SPLINE
  5
153
330
1B
100
AcDbEntity
  8
0
  6
Continuous
 62
     7
370
    25
100
AcDbSpline
210
0.0
220
0.0
230
1.0
 70
     8
 71
     3
 72
    23
 73
    19
 74
     0
 42
0.000000001
 43
0.00000001
 40
0.0
 40
0.0
 40
0.0
 40
0.0
 40
0.0700437554181549
 40
0.1392383167626451
 40
0.2081974550441376
 40
0.2791733744245662
 40
0.3499868116864758
 40
0.4183538456626563
 40
0.4876095837571513
 40
0.5574110731083871
 40
0.5953301567632404
 40
0.6379640515652181
 40
0.6859127777112948
 40
0.7381851646524769
 40
0.7961026471849404
 40
0.8585165439469236
 40
0.9266577264685182
 40
1.0
 40
1.0
 40
1.0
 40
1.0
 10
1.778086700678766
 20
0.786433557386166
 30
0.0
 10
1.778036990186816
 20
0.7875413728762795
 30
0.0
 10
1.777938171881269
 20
0.7897435729611547
 30
0.0
 10
1.777203689079668
 20
0.7929710832213799
 30
0.0
 10
1.775969464124411
 20
0.7960512290633803
 30
0.0
 10
1.774258574576581
 20
0.7989241851796546
 30
0.0
 10
1.772182152137185
 20
0.8015300436034821
 30
0.0
 10
1.769768792172305
 20
0.8037937100232818
 30
0.0
 10
1.767024175584366
 20
0.8056134620993107
 30
0.0
 10
1.764471095622448
 20
0.8067880007468976
 30
0.0
 10
1.76220333239302
 20
0.8075051375749729
 30
0.0
 10
1.760233570192871
 20
0.8080069029473042
 30
0.0
 10
1.758009527890259
 20
0.8084075173663964
 30
0.0
 10
1.755530481452843
 20
0.8087319072402621
 30
0.0
 10
1.752815645473299
 20
0.8090096025640178
 30
0.0
 10
1.749841696068
 20
0.8091980268645679
 30
0.0
 10
1.746619899089086
 20
0.8093083204171866
 30
0.0
 10
1.744383262440859
 20
0.8093137910965849
 30
0.0
 10
1.74322383347707
 20
0.8093166269904483
 30
0.0
  0
SPLINE
  5
154
330
1B
100
AcDbEntity
  8
0
  6
Continuous
 62
     7
370
    25
100
AcDbSpline
210
0.0
220
0.0
230
1.0
 70
     8
 71
     3
 72
    23
 73
    19
 74
     0
 42
0.000000001
 43
0.00000001
 40
0.0
 40
0.0
 40
0.0
 40
0.0
 40
0.0725383714064943
 40
0.1400338305012488
 40
0.2024956806336244
 40
0.2605750556694163
 40
0.3132283378464677
 40
0.3615831937532631
 40
0.4048783612951244
 40
0.4441274373055368
 40
0.5163996933371978
 40
0.5865066709977651
 40
0.6550853737960486
 40
0.724383783147036
 40
0.7939735287256615
 40
0.8616376821817759
 40
0.9301109423064027
 40
1.0
 40
1.0
 40
1.0
 40
1.0
 10
1.74214730788652
 20
0.763081233037287
 30
0.0
 10
1.743325257721672
 20
0.7630806242344869
 30
0.0
 10
1.74559926559304
 20
0.7630794489532322
 30
0.0
 10
1.748884156271514
 20
0.763236347515405
 30
0.0
 10
1.751931766007856
 20
0.7634174708486505
 30
0.0
 10
1.754732733542235
 20
0.7636826646857342
 30
0.0
 10
1.757288321514023
 20
0.764057517342593
 30
0.0
 10
1.759602791154747
 20
0.7644359322212598
 30
0.0
 10
1.761658195993131
 20
0.7649833874416758
 30
0.0
 10
1.764063676377612
 20
0.76572051614794
 30
0.0
 10
1.766744123128668
 20
0.766977705740892
 30
0.0
 10
1.769660168346117
 20
0.7688025045618982
 30
0.0
 10
1.772131451273329
 20
0.7711285166957615
 30
0.0
 10
1.774269966893866
 20
0.7737437856456232
 30
0.0
 10
1.775967048702464
 20
0.7766532001899578
 30
0.0
 10
1.777209410604686
 20
0.7797661504547616
 30
0.0
 10
1.777939377430025
 20
0.7830507114595529
 30
0.0
 10
1.77803725907001
 20
0.7852982759814108
 30
0.0
 10
1.778086700678766
 20
0.786433557386166
 30
0.0
  0
SPLINE
  5
158
330
1B
100
AcDbEntity
  8
0
  6
Continuous
 62
     7
370
    25
100
AcDbSpline
210
0.0
220
0.0
230
1.0
 70
     8
 71
     3
 72
    23
 73
    19
 74
     0
 42
0.000000001
 43
0.00000001
 40
0.0
 40
0.0
 40
0.0
 40
0.0
 40
0.0688142958243081
 40
0.1363648245522137
 40
0.2040193535112454
 40
0.2730637386246093
 40
0.3429133195614901
 40
0.4109654441389555
 40
0.4791687665134438
 40
0.5493080065097825
 40
0.58765157641765
 40
0.6306466687627891
 40
0.6788787856966444
 40
0.7319342992295795
 40
0.7911114229480425
 40
0.8552831895130761
 40
0.9250859386773849
 40
1.0
 40
1.0
 40
1.0
 40
1.0
 10
1.663257304353309
 20
0.7866267799280601
 30
0.0
 10
1.663209976751399
 20
0.7877349127520621
 30
0.0
 10
1.663116190713868
 20
0.7899308276606688
 30
0.0
 10
1.662350491165573
 20
0.7931456272782903
 30
0.0
 10
1.661055633631853
 20
0.7961797591732044
 30
0.0
 10
1.659310663634813
 20
0.7990208806295706
 30
0.0
 10
1.657184712652038
 20
0.8015998466080891
 30
0.0
 10
1.654691885380598
 20
0.8038064274371249
 30
0.0
 10
1.651900342264452
 20
0.8056272725031908
 30
0.0
 10
1.649291239967136
 20
0.8067908307910605
 30
0.0
 10
1.646959184357196
 20
0.8075042108401128
 30
0.0
 10
1.644934394591807
 20
0.8080062251633815
 30
0.0
 10
1.642646541138288
 20
0.8084095507118055
 30
0.0
 10
1.640084515208684
 20
0.8087327027147663
 30
0.0
 10
1.637259254154162
 20
0.8090104564253501
 30
0.0
 10
1.634156472615125
 20
0.8091975343252722
 30
0.0
 10
1.630796756856806
 20
0.8093083163766905
 30
0.0
 10
1.628468137518564
 20
0.8093137923168721
 30
0.0
 10
1.627262705120521
 20
0.809316626990445
 30
0.0
  0
SPLINE
  5
159
330
1B
100
AcDbEntity
  8
0
  6
Continuous
 62
     7
370
    25
100
AcDbSpline
210
0.0
220
0.0
230
1.0
 70
     8
 71
     3
 72
    23
 73
    19
 74
     0
 42
0.000000001
 43
0.00000001
 40
0.0
 40
0.0
 40
0.0
 40
0.0
 40
0.0716681496796058
 40
0.1389132862742019
 40
0.2011845700265597
 40
0.2591244282905452
 40
0.3122550414262363
 40
0.360681509623108
 40
0.405086143328646
 40
0.445101658590712
 40
0.5187777804882573
 40
0.5894615790331994
 40
0.6584622419857159
 40
0.7272832183683664
 40
0.7963224869047204
 40
0.8631748932078798
 40
0.9309493809878573
 40
1.0
 40
1.0
 40
1.0
 40
1.0
 10
1.626655434274566
 20
0.763191645918367
 30
0.0
 10
1.627833388562829
 20
0.7631911247902516
 30
0.0
 10
1.630116599473042
 20
0.7631901146955382
 30
0.0
 10
1.633419775253018
 20
0.7633473499807151
 30
0.0
 10
1.636495370201506
 20
0.7635262207776828
 30
0.0
 10
1.639331620286641
 20
0.7637998170586572
 30
0.0
 10
1.64192979254357
 20
0.7641524183077042
 30
0.0
 10
1.644288588339694
 20
0.7645934806793037
 30
0.0
 10
1.646411858099409
 20
0.7651073414134313
 30
0.0
 10
1.648888178509752
 20
0.7659026810122495
 30
0.0
 10
1.651653396279709
 20
0.7671627604715124
 30
0.0
 10
1.654658571865421
 20
0.7689960478216907
 30
0.0
 10
1.65721771902095
 20
0.7713019186550565
 30
0.0
 10
1.65937983958414
 20
0.7739386688926315
 30
0.0
 10
1.661117218776081
 20
0.7768377338075022
 30
0.0
 10
1.662342102805
 20
0.7799643625167998
 30
0.0
 10
1.663119364312562
 20
0.7832396222808773
 30
0.0
 10
1.663211039330256
 20
0.7854907288889406
 30
0.0
 10
1.663257304353309
 20
0.7866267799280601
 30
0.0
  0
SPLINE
  5
15D
330
1B
100
AcDbEntity
  8
0
  6
Continuous
 62
     7
370
    25
100
AcDbSpline
210
0.0
220
0.0
230
1.0
 70
     8
 71
     3
 72
    27
 73
    23
 74
     0
 42
0.000000001
 43
0.00000001
 40
0.0
 40
0.0
 40
0.0
 40
0.0
 40
0.0656811979906388
 40
0.128486464174064
 40
0.1881751303280069
 40
0.2451061306699844
 40
0.2994484245294742
 40
0.3508229360093815
 40
0.3999416805337762
 40
0.4466717436323701
 40
0.4912545333734973
 40
0.5333763442704358
 40
0.5738527549682221
 40
0.6125263117194503
 40
0.6495971364453271
 40
0.6855320415538475
 40
0.7201057860681978
 40
0.753837662973647
 40
0.8189254160467113
 40
0.880493461650163
 40
0.9403113338460533
 40
0.9999999999999999
 40
0.9999999999999999
 40
0.9999999999999999
 40
0.9999999999999999
 10
2.269203195732272
 20
0.7545518379736899
 30
0.0
 10
2.269181534738849
 20
0.7562080416161323
 30
0.0
 10
2.269139161205167
 20
0.7594479299933177
 30
0.0
 10
2.268977193185437
 20
0.7641927402556076
 30
0.0
 10
2.268558942221183
 20
0.7686993450158113
 30
0.0
 10
2.268094409982426
 20
0.7729871589002333
 30
0.0
 10
2.26740948001817
 20
0.7770324464082825
 30
0.0
 10
2.266670983684299
 20
0.7808690725994764
 30
0.0
 10
2.265678809972084
 20
0.7844495066474834
 30
0.0
 10
2.264618976311691
 20
0.7878298051400634
 30
0.0
 10
2.263405968613606
 20
0.7909715631912784
 30
0.0
 10
2.262070703485354
 20
0.7938894287960812
 30
0.0
 10
2.260644649990509
 20
0.7965974888258753
 30
0.0
 10
2.259095742885814
 20
0.7990883132973905
 30
0.0
 10
2.25744236953679
 20
0.8013730590812941
 30
0.0
 10
2.255640891221924
 20
0.8034059171347228
 30
0.0
 10
2.25376276630811
 20
0.8052498922571051
 30
0.0
 10
2.251132168441039
 20
0.8073547178130761
 30
0.0
 10
2.247688298763856
 20
0.8095008475565052
 30
0.0
 10
2.243403037057464
 20
0.8114758774722672
 30
0.0
 10
2.238943562874348
 20
0.8126100622211224
 30
0.0
 10
2.235928859957336
 20
0.8127699711596299
 30
0.0
 10
2.234423138191388
 20
0.8128498391850768
 30
0.0
  0
SPLINE
  5
15E
330
1B
100
AcDbEntity
  8
0
  6
Continuous
 62
     7
370
    25
100
AcDbSpline
210
0.0
220
0.0
230
1.0
 70
     8
 71
     3
 72
    15
 73
    11
 74
     0
 42
0.000000001
 43
0.00000001
 40
0.0
 40
0.0
 40
0.0
 40
0.0
 40
0.1105883385953345
 40
0.2245417540535974
 40
0.3425034940501039
 40
0.4643240984173568
 40
0.5907560327017664
 40
0.7222274753555131
 40
0.8588428362087243
 40
0.9999999999999999
 40
0.9999999999999999
 40
0.9999999999999999
 40
0.9999999999999999
 10
2.263986187101137
 20
0.7199097965341565
 30
0.0
 10
2.264401611030028
 20
0.7211393138359822
 30
0.0
 10
2.265245099763589
 20
0.7236357612471411
 30
0.0
 10
2.266332177490783
 20
0.7275083459747194
 30
0.0
 10
2.26718829556967
 20
0.7315714469171578
 30
0.0
 10
2.267958506819646
 20
0.735800782221033
 30
0.0
 10
2.268484217681746
 20
0.7402275421033557
 30
0.0
 10
2.268907359936993
 20
0.7448380296590934
 30
0.0
 10
2.269156599580271
 20
0.7496357210856863
 30
0.0
 10
2.26918749529174
 20
0.7528953664083335
 30
0.0
 10
2.269203195732272
 20
0.7545518379736899
 30
0.0
  0
SPLINE
  5
15F
330
1B
100
AcDbEntity
  8
0
  6
Continuous
 62
     7
370
    25
100
AcDbSpline
210
0.0
220
0.0
230
1.0
 70
     8
 71
     3
 72
    19
 73
    15
 74
     0
 42
0.000000001
 43
0.00000001
 40
0.0
 40
0.0
 40
0.0
 40
0.0
 40
0.1128134007444647
 40
0.2253938839207301
 40
0.3395948145627034
 40
0.4596754102248674
 40
0.5217351900879368
 40
0.5839258387389202
 40
0.6481741447653732
 40
0.7138810381130718
 40
0.7810044549073921
 40
0.8514509275565547
 40
0.9240506926641795
 40
1.0
 40
1.0
 40
1.0
 40
1.0
 10
2.234423138191388
 20
0.6962538367623017
 30
0.0
 10
2.23594903077626
 20
0.6963167415186627
 30
0.0
 10
2.23899766554731
 20
0.6964424211565373
 30
0.0
 10
2.243451751970318
 20
0.6976549698720589
 30
0.0
 10
2.247775778351509
 20
0.699484479299763
 30
0.0
 10
2.251164437417607
 20
0.7016477669146935
 30
0.0
 10
2.253742490311363
 20
0.7037079373655307
 30
0.0
 10
2.255589615906083
 20
0.7054644195825752
 30
0.0
 10
2.257284972143614
 20
0.7074311860119604
 30
0.0
 10
2.258892927846552
 20
0.7095532055361712
 30
0.0
 10
2.260367694605404
 20
0.7118710198737211
 30
0.0
 10
2.261708763018604
 20
0.7143734834668717
 30
0.0
 10
2.262932516858964
 20
0.7170675455893987
 30
0.0
 10
2.263629723392437
 20
0.7189482439797849
 30
0.0
 10
2.263986187101137
 20
0.7199097965341565
 30
0.0
  0
SPLINE
  5
160
330
1B
100
AcDbEntity
  8
0
  6
Continuous
 62
     7
370
    25
100
AcDbSpline
210
0.0
220
0.0
230
1.0
 70
     8
 71
     3
 72
    27
 73
    23
 74
     0
 42
0.000000001
 43
0.00000001
 40
0.0
 40
0.0
 40
0.0
 40
0.0
 40
0.0603866193110588
 40
0.1208832485859965
 40
0.1827546186251384
 40
0.2478110297583505
 40
0.2812991000432485
 40
0.3150876241506567
 40
0.3497023955502748
 40
0.384856581118554
 40
0.4209661972261015
 40
0.4585111882611383
 40
0.4971747221273113
 40
0.537602047866268
 40
0.5805030184200115
 40
0.6274675400267046
 40
0.6783882095592437
 40
0.7339832205925603
 40
0.7937467045508348
 40
0.857713672160733
 40
0.9266978643613862
 40
1.0
 40
1.0
 40
1.0
 40
1.0
 10
2.234423138191388
 20
0.8128498391850768
 30
0.0
 10
2.232899099132854
 20
0.8127698609706177
 30
0.0
 10
2.22984824458147
 20
0.8126097588405395
 30
0.0
 10
2.225342419592228
 20
0.8114801031873283
 30
0.0
 10
2.221023350629932
 20
0.8095110887803343
 30
0.0
 10
2.217588587847301
 20
0.8073476095494332
 30
0.0
 10
2.21495615530763
 20
0.805287046106847
 30
0.0
 10
2.213102505962091
 20
0.8035001778368306
 30
0.0
 10
2.211364467685802
 20
0.8015456008933207
 30
0.0
 10
2.2097633771292
 20
0.7994037932220475
 30
0.0
 10
2.208263799050765
 20
0.797102007107119
 30
0.0
 10
2.20688659383125
 20
0.7946221344801421
 30
0.0
 10
2.205645754080226
 20
0.7919516083295348
 30
0.0
 10
2.204500693600689
 20
0.7890926935492582
 30
0.0
 10
2.203493890922494
 20
0.7859595855006131
 30
0.0
 10
2.202663419929187
 20
0.7825041133118946
 30
0.0
 10
2.201896213113441
 20
0.7787064010367312
 30
0.0
 10
2.201353092290587
 20
0.774544215684557
 30
0.0
 10
2.200870267260597
 20
0.7700449183078169
 30
0.0
 10
2.20055997797114
 20
0.7651914805822502
 30
0.0
 10
2.200318589881798
 20
0.7599920955270414
 30
0.0
 10
2.200309988922637
 20
0.756401577475755
 30
0.0
 10
2.200305557936997
 20
0.7545518379736886
 30
0.0
  0
SPLINE
  5
161
330
1B
100
AcDbEntity
  8
0
  6
Continuous
 62
     7
370
    25
100
AcDbSpline
210
0.0
220
0.0
230
1.0
 70
     8
 71
     3
 72
    27
 73
    23
 74
     0
 42
0.000000001
 43
0.00000001
 40
0.0
 40
0.0
 40
0.0
 40
0.0
 40
0.0729510658758682
 40
0.1415836941865459
 40
0.2059264601708686
 40
0.2653013571846072
 40
0.3205972327139295
 40
0.3718165030988118
 40
0.4187897697094535
 40
0.4616987286157656
 40
0.5021335821035662
 40
0.5408043152926483
 40
0.5781805253279683
 40
0.6142968652075154
 40
0.6496782432647891
 40
0.6842994600896392
 40
0.7183589527723623
 40
0.752080864647597
 40
0.8176524386023871
 40
0.8797220764054363
 40
0.9399655597309909
 40
1.0
 40
1.0
 40
1.0
 40
1.0
 10
2.200305557936997
 20
0.7545518379736886
 30
0.0
 10
2.20031026057745
 20
0.7527113380207807
 30
0.0
 10
2.200319387479159
 20
0.7491392890129402
 30
0.0
 10
2.20055782057275
 20
0.7439486094469588
 30
0.0
 10
2.200882632856195
 20
0.739107257918724
 30
0.0
 10
2.201301581564267
 20
0.734609087191749
 30
0.0
 10
2.201923744892067
 20
0.7304693229197122
 30
0.0
 10
2.202620862522684
 20
0.7266594928777778
 30
0.0
 10
2.20346921250769
 20
0.7231997591331384
 30
0.0
 10
2.204472953368598
 20
0.7200663807589435
 30
0.0
 10
2.205616224899835
 20
0.7172061812118844
 30
0.0
 10
2.206864487249053
 20
0.7145447160493887
 30
0.0
 10
2.208205460591767
 20
0.7120505453235718
 30
0.0
 10
2.209706214550541
 20
0.7097460725529358
 30
0.0
 10
2.211340665858772
 20
0.7076237826288084
 30
0.0
 10
2.213071896533476
 20
0.7056461120649382
 30
0.0
 10
2.214964517960334
 20
0.7038824513824361
 30
0.0
 10
2.217582775540774
 20
0.7017672208694626
 30
0.0
 10
2.221039329652073
 20
0.6995814282029447
 30
0.0
 10
2.225394465684793
 20
0.6976780388394929
 30
0.0
 10
2.22986960155021
 20
0.6964818791374348
 30
0.0
 10
2.232907052341032
 20
0.6963297627612467
 30
0.0
 10
2.234423138191388
 20
0.6962538367623017
 30
0.0
  0
SPLINE
  5
16B
330
1B
100
AcDbEntity
  8
0
  6
Continuous
 62
     7
370
    25
100
AcDbSpline
210
0.0
220
0.0
230
1.0
 70
     8
 71
     3
 72
    10
 73
     6
 74
     0
 42
0.000000001
 43
0.00000001
 40
0.0
 40
0.0
 40
0.0
 40
0.0
 40
0.5
 40
0.5
 40
1.0
 40
1.0
 40
1.0
 40
1.0
 10
3.420000000000002
 20
0.5019685039370099
 30
0.0
 10
3.403204791362605
 20
0.5019685039370098
 30
0.0
 10
3.386420447658667
 20
0.5035474720746471
 30
0.0
 10
3.352928177378435
 20
0.5100069101154815
 30
0.0
 10
3.336133053742599
 20
0.5149487346075491
 30
0.0
 10
3.320000000000003
 20
0.5215011495530795
 30
0.0
  0
SPLINE
  5
172
330
1B
100
AcDbEntity
  8
0
  6
Continuous
 62
     7
370
    25
100
AcDbSpline
210
0.0
220
0.0
230
1.0
 70
     8
 71
     3
 72
    10
 73
     6
 74
     0
 42
0.000000001
 43
0.00000001
 40
0.0
 40
0.0
 40
0.0
 40
0.0
 40
0.5
 40
0.5
 40
1.0
 40
1.0
 40
1.0
 40
1.0
 10
3.320000000000003
 20
1.013931921313065
 30
0.0
 10
3.336129291746225
 20
1.020482808329559
 30
0.0
 10
3.352584791296661
 20
1.025336681931478
 30
0.0
 10
3.386072495914723
 20
1.031841268680298
 30
0.0
 10
3.40320087216833
 20
1.033464566929139
 30
0.0
 10
3.420000000000003
 20
1.033464566929139
 30
0.0
  0
CIRCLE
  5
17E
330
1B
100
AcDbEntity
  8
0
  6
Continuous
 62
     7
370
    25
100
AcDbCircle
 10
3.42
 20
0.7677165354
 30
0.0
 40
0.1719999999999997
  0
CIRCLE
  5
180
330
1B
100
AcDbEntity
  8
0
  6
Continuous
 62
     7
370
    25
100
AcDbCircle
 10
3.42
 20
0.7677165354
 30
0.0
 40
0.1338582677165361
  0
CIRCLE
  5
181
330
1B
100
AcDbEntity
  8
0
  6
Continuous
 62
     7
370
    25
100
AcDbCircle
 10
0.6
 20
0.2677165354
 30
0.0
 40
0.1043307086614167
  0
CIRCLE
  5
182
330
1B
100
AcDbEntity
  8
0
  6
Continuous
 62
     7
370
    25
100
AcDbCircle
 10
3.1
 20
1.2677165354
 30
0.0
 40
0.104330708661418
  0
CIRCLE
  5
183
330
1B
100
AcDbEntity
  8
0
  6
Continuous
 62
     7
370
    25
100
AcDbCircle
 10
0.6
 20
1.2677165354
 30
0.0
 40
0.1043307086614166
  0
CIRCLE
  5
184
330
1B
100
AcDbEntity
  8
0
  6
Continuous
 62
     7
370
    25
100
AcDbCircle
 10
3.1
 20
0.2677165354
 30
0.0
 40
0.1043307086614162
  0
LINE
  5
185
330
1B
100
AcDbEntity
  8
0
  6
Continuous
 62
     7
370
    25
100
AcDbLine
 10
2.309835136
 20
0.754551838
 30
0.0
 11
2.3239679847
 21
0.8234494758
 31
0.0
  0
LINE
  5
186
330
1B
100
AcDbEntity
  8
0
  6
Continuous
 62
     7
370
    25
100
AcDbLine
 10
2.2957022872
 20
0.7209863221
 30
0.0
 11
2.3080685299
 21
0.7209863221
 31
0.0
  0
LINE
  5
187
330
1B
100
AcDbEntity
  8
0
  6
Continuous
 62
     7
370
    25
100
AcDbLine
 10
2.3336291118
 20
0.809316627
 30
0.0
 11
2.3262038456
 21
0.7730735988
 31
0.0
  0
LINE
  5
188
330
1B
100
AcDbEntity
  8
0
  6
Continuous
 62
     7
370
    25
100
AcDbLine
 10
2.3804993799
 20
0.809316627
 30
0.0
 11
2.3336291118
 21
0.809316627
 31
0.0
  0
LINE
  5
189
330
1B
100
AcDbEntity
  8
0
  6
Continuous
 62
     7
370
    25
100
AcDbLine
 10
2.3804993799
 20
0.8234494758
 30
0.0
 11
2.3804993799
 21
0.809316627
 31
0.0
  0
LINE
  5
18A
330
1B
100
AcDbEntity
  8
0
  6
Continuous
 62
     7
370
    25
100
AcDbLine
 10
2.3239679847
 20
0.8234494758
 30
0.0
 11
2.3804993799
 21
0.8234494758
 31
0.0
  0
LINE
  5
18B
330
1B
100
AcDbEntity
  8
0
  6
Continuous
 62
     7
370
    25
100
AcDbLine
 10
2.1773396787
 20
0.7315859587
 30
0.0
 11
2.1243414958
 21
0.7315859587
 31
0.0
  0
LINE
  5
18C
330
1B
100
AcDbEntity
  8
0
  6
Continuous
 62
     7
370
    25
100
AcDbLine
 10
2.1773396787
 20
0.7457188075
 30
0.0
 11
2.1773396787
 21
0.7315859587
 31
0.0
  0
LINE
  5
18D
330
1B
100
AcDbEntity
  8
0
  6
Continuous
 62
     7
370
    25
100
AcDbLine
 10
2.1243414958
 20
0.7457188075
 30
0.0
 11
2.1773396787
 21
0.7457188075
 31
0.0
  0
LINE
  5
18E
330
1B
100
AcDbEntity
  8
0
  6
Continuous
 62
     7
370
    25
100
AcDbLine
 10
2.1243414958
 20
0.7315859587
 30
0.0
 11
2.1243414958
 21
0.7457188075
 31
0.0
  0
LINE
  5
18F
330
1B
100
AcDbEntity
  8
0
  6
Continuous
 62
     7
370
    25
100
AcDbLine
 10
1.9777131897
 20
0.7174531099
 30
0.0
 11
1.9123487641
 21
0.7174531099
 31
0.0
  0
LINE
  5
190
330
1B
100
AcDbEntity
  8
0
  6
Continuous
 62
     7
370
    25
100
AcDbLine
 10
1.9777131897
 20
0.6856542002
 30
0.0
 11
1.9777131897
 21
0.7174531099
 31
0.0
  0
LINE
  5
191
330
1B
100
AcDbEntity
  8
0
  6
Continuous
 62
     7
370
    25
100
AcDbLine
 10
1.9900794324
 20
0.6856542002
 30
0.0
 11
1.9777131897
 21
0.6856542002
 31
0.0
  0
LINE
  5
192
330
1B
100
AcDbEntity
  8
0
  6
Continuous
 62
     7
370
    25
100
AcDbLine
 10
1.9900794324
 20
0.7174531099
 30
0.0
 11
1.9900794324
 21
0.6856542002
 31
0.0
  0
LINE
  5
193
330
1B
100
AcDbEntity
  8
0
  6
Continuous
 62
     7
370
    25
100
AcDbLine
 10
2.0059788872
 20
0.7174531099
 30
0.0
 11
1.9900794324
 21
0.7174531099
 31
0.0
  0
LINE
  5
194
330
1B
100
AcDbEntity
  8
0
  6
Continuous
 62
     7
370
    25
100
AcDbLine
 10
2.0059788872
 20
0.7315859587
 30
0.0
 11
2.0059788872
 21
0.7174531099
 31
0.0
  0
LINE
  5
195
330
1B
100
AcDbEntity
  8
0
  6
Continuous
 62
     7
370
    25
100
AcDbLine
 10
1.9900794324
 20
0.7315859587
 30
0.0
 11
2.0059788872
 21
0.7315859587
 31
0.0
  0
LINE
  5
196
330
1B
100
AcDbEntity
  8
0
  6
Continuous
 62
     7
370
    25
100
AcDbLine
 10
1.9900794324
 20
0.826982688
 30
0.0
 11
1.9900794324
 21
0.7315859587
 31
0.0
  0
LINE
  5
197
330
1B
100
AcDbEntity
  8
0
  6
Continuous
 62
     7
370
    25
100
AcDbLine
 10
1.9875675393
 20
0.826982688
 30
0.0
 11
1.9900794324
 21
0.826982688
 31
0.0
  0
LINE
  5
198
330
1B
100
AcDbEntity
  8
0
  6
Continuous
 62
     7
370
    25
100
AcDbLine
 10
1.9123487641
 20
0.7174531099
 30
0.0
 11
1.9875675393
 21
0.826982688
 31
0.0
  0
LINE
  5
199
330
1B
100
AcDbEntity
  8
0
  6
Continuous
 62
     7
370
    25
100
AcDbLine
 10
1.7180220934
 20
0.6856542002
 30
0.0
 11
1.7056558507
 21
0.6856542002
 31
0.0
  0
LINE
  5
19A
330
1B
100
AcDbEntity
  8
0
  6
Continuous
 62
     7
370
    25
100
AcDbLine
 10
1.7180220934
 20
0.7492520197
 30
0.0
 11
1.7180220934
 21
0.6856542002
 31
0.0
  0
LINE
  5
19B
330
1B
100
AcDbEntity
  8
0
  6
Continuous
 62
     7
370
    25
100
AcDbLine
 10
1.727876443
 20
0.7492520197
 30
0.0
 11
1.7180220934
 21
0.7492520197
 31
0.0
  0
LINE
  5
19C
330
1B
100
AcDbEntity
  8
0
  6
Continuous
 62
     7
370
    25
100
AcDbLine
 10
1.7056558507
 20
0.8234494758
 30
0.0
 11
1.7326794033
 21
0.8234494758
 31
0.0
  0
LINE
  5
19D
330
1B
100
AcDbEntity
  8
0
  6
Continuous
 62
     7
370
    25
100
AcDbLine
 10
1.7056558507
 20
0.6856542002
 30
0.0
 11
1.7056558507
 21
0.8234494758
 31
0.0
  0
LINE
  5
19E
330
1B
100
AcDbEntity
  8
0
  6
Continuous
 62
     7
370
    25
100
AcDbLine
 10
1.5499736884
 20
0.719219716
 30
0.0
 11
1.5607941507
 21
0.7110215596
 31
0.0
  0
LINE
  5
19F
330
1B
100
AcDbEntity
  8
0
  6
Continuous
 62
     7
370
    25
100
AcDbLine
 10
1.5607941507
 20
0.798164926
 30
0.0
 11
1.5499736884
 21
0.7898839599
 31
0.0
  0
LINE
  5
1A0
330
1B
100
AcDbEntity
  8
0
  6
Continuous
 62
     7
370
    25
100
AcDbLine
 10
3.7
 20
1.5254330709
 30
0.0
 11
0.0
 21
1.5254330709
 31
0.0
  0
LINE
  5
1A1
330
1B
100
AcDbEntity
  8
0
  6
Continuous
 62
     7
370
    25
100
AcDbLine
 10
3.32
 20
1.5354330709
 30
0.0
 11
3.32
 21
1.0139319213
 31
0.0
  0
LINE
  5
1A2
330
1B
100
AcDbEntity
  8
0
  6
Continuous
 62
     7
370
    25
100
AcDbLine
 10
3.32
 20
0.5215011496
 30
0.0
 11
3.32
 21
0.0
 31
0.0
  0
LINE
  5
1A3
330
1B
100
AcDbEntity
  8
0
  6
Continuous
 62
     7
370
    25
100
AcDbLine
 10
0.0
 20
0.01
 30
0.0
 11
3.7
 21
0.01
 31
0.0
  0
LINE
  5
1A4
330
1B
100
AcDbEntity
  8
0
  6
Continuous
 62
     7
370
    25
100
AcDbLine
 10
0.38
 20
1.5354330709
 30
0.0
 11
0.38
 21
0.0
 31
0.0
  0
LINE
  5
1A5
330
1B
100
AcDbEntity
  8
0
  6
Continuous
 62
     7
370
    25
100
AcDbLine
 10
1.6014260909
 20
0.6856542002
 30
0.0
 11
1.5890598483
 21
0.6856542002
 31
0.0
  0
LINE
  5
1A6
330
1B
100
AcDbEntity
  8
0
  6
Continuous
 62
     7
370
    25
100
AcDbLine
 10
1.6014260909
 20
0.7492520197
 30
0.0
 11
1.6014260909
 21
0.6856542002
 31
0.0
  0
LINE
  5
1A7
330
1B
100
AcDbEntity
  8
0
  6
Continuous
 62
     7
370
    25
100
AcDbLine
 10
1.6114736631
 20
0.7492520197
 30
0.0
 11
1.6014260909
 21
0.7492520197
 31
0.0
  0
LINE
  5
1A8
330
1B
100
AcDbEntity
  8
0
  6
Continuous
 62
     7
370
    25
100
AcDbLine
 10
1.6620979691
 20
0.6856542002
 30
0.0
 11
1.6114736631
 21
0.7492520197
 31
0.0
  0
LINE
  5
1A9
330
1B
100
AcDbEntity
  8
0
  6
Continuous
 62
     7
370
    25
100
AcDbLine
 10
1.6773901531
 20
0.6856542002
 30
0.0
 11
1.6620979691
 21
0.6856542002
 31
0.0
  0
LINE
  5
1AA
330
1B
100
AcDbEntity
  8
0
  6
Continuous
 62
     7
370
    25
100
AcDbLine
 10
1.6267658472
 20
0.7492520197
 30
0.0
 11
1.6773901531
 21
0.6856542002
 31
0.0
  0
LINE
  5
1AB
330
1B
100
AcDbEntity
  8
0
  6
Continuous
 62
     7
370
    25
100
AcDbLine
 10
1.5890598483
 20
0.8234494758
 30
0.0
 11
1.6166354653
 21
0.8234494758
 31
0.0
  0
LINE
  5
1AC
330
1B
100
AcDbEntity
  8
0
  6
Continuous
 62
     7
370
    25
100
AcDbLine
 10
1.5890598483
 20
0.6856542002
 30
0.0
 11
1.5890598483
 21
0.8234494758
 31
0.0
  0
LINE
  5
1AD
330
1B
100
AcDbEntity
  8
0
  6
Continuous
 62
     7
370
    25
100
AcDbLine
 10
1.8487509446
 20
0.809316627
 30
0.0
 11
1.8275516714
 21
0.809316627
 31
0.0
  0
LINE
  5
1AE
330
1B
100
AcDbEntity
  8
0
  6
Continuous
 62
     7
370
    25
100
AcDbLine
 10
1.8487509446
 20
0.6856542002
 30
0.0
 11
1.8487509446
 21
0.809316627
 31
0.0
  0
LINE
  5
1AF
330
1B
100
AcDbEntity
  8
0
  6
Continuous
 62
     7
370
    25
100
AcDbLine
 10
1.8611171873
 20
0.6856542002
 30
0.0
 11
1.8487509446
 21
0.6856542002
 31
0.0
  0
LINE
  5
1B0
330
1B
100
AcDbEntity
  8
0
  6
Continuous
 62
     7
370
    25
100
AcDbLine
 10
1.8611171873
 20
0.8234494758
 30
0.0
 11
1.8611171873
 21
0.6856542002
 31
0.0
  0
LINE
  5
1B1
330
1B
100
AcDbEntity
  8
0
  6
Continuous
 62
     7
370
    25
100
AcDbLine
 10
1.8356394149
 20
0.8234494758
 30
0.0
 11
1.8611171873
 21
0.8234494758
 31
0.0
  0
LINE
  5
1B2
330
1B
100
AcDbEntity
  8
0
  6
Continuous
 62
     7
370
    25
100
AcDbLine
 10
1.8275516714
 20
0.809316627
 30
0.0
 11
1.8356394149
 21
0.8234494758
 31
0.0
  0
LINE
  5
1B3
330
1B
100
AcDbEntity
  8
0
  6
Continuous
 62
     7
370
    25
100
AcDbLine
 10
2.0183451299
 20
0.6856542002
 30
0.0
 11
2.0717849644
 21
0.7426824533
 31
0.0
  0
LINE
  5
1B4
330
1B
100
AcDbEntity
  8
0
  6
Continuous
 62
     7
370
    25
100
AcDbLine
 10
2.1119752531
 20
0.6856542002
 30
0.0
 11
2.0183451299
 21
0.6856542002
 31
0.0
  0
LINE
  5
1B5
330
1B
100
AcDbEntity
  8
0
  6
Continuous
 62
     7
370
    25
100
AcDbLine
 10
2.1119752531
 20
0.699787049
 30
0.0
 11
2.1119752531
 21
0.6856542002
 31
0.0
  0
LINE
  5
1B6
330
1B
100
AcDbEntity
  8
0
  6
Continuous
 62
     7
370
    25
100
AcDbLine
 10
2.0478529724
 20
0.699787049
 30
0.0
 11
2.1119752531
 21
0.699787049
 31
0.0
  0
LINE
  5
1B7
330
1B
100
AcDbEntity
  8
0
  6
Continuous
 62
     7
370
    25
100
AcDbLine
 10
2.0823293945
 20
0.7365821416
 30
0.0
 11
2.0478529724
 21
0.699787049
 31
0.0
  0
LINE
  5
1B8
330
1B
100
AcDbEntity
  8
0
  6
Continuous
 62
     7
370
    25
100
AcDbLine
 10
2.0360111909
 20
0.7810509294
 30
0.0
 11
2.0236449482
 21
0.7810509294
 31
0.0
  0
LINE
  5
1B9
330
1B
100
AcDbEntity
  8
0
  6
Continuous
 62
     7
370
    25
100
AcDbLine
 10
1.7180220934
 20
0.7633848685
 30
0.0
 11
1.7421473079
 21
0.763081233
 31
0.0
  0
LINE
  5
1BA
330
1B
100
AcDbEntity
  8
0
  6
Continuous
 62
     7
370
    25
100
AcDbLine
 10
1.7180220934
 20
0.809316627
 30
0.0
 11
1.7180220934
 21
0.7633848685
 31
0.0
  0
LINE
  5
1BB
330
1B
100
AcDbEntity
  8
0
  6
Continuous
 62
     7
370
    25
100
AcDbLine
 10
1.7432238335
 20
0.809316627
 30
0.0
 11
1.7180220934
 21
0.809316627
 31
0.0
  0
LINE
  5
1BC
330
1B
100
AcDbEntity
  8
0
  6
Continuous
 62
     7
370
    25
100
AcDbLine
 10
1.6014260909
 20
0.7633848685
 30
0.0
 11
1.6266554343
 21
0.7631916459
 31
0.0
  0
LINE
  5
1BD
330
1B
100
AcDbEntity
  8
0
  6
Continuous
 62
     7
370
    25
100
AcDbLine
 10
1.6014260909
 20
0.809316627
 30
0.0
 11
1.6014260909
 21
0.7633848685
 31
0.0
  0
LINE
  5
1BE
330
1B
100
AcDbEntity
  8
0
  6
Continuous
 62
     7
370
    25
100
AcDbLine
 10
1.6272627051
 20
0.809316627
 30
0.0
 11
1.6014260909
 21
0.809316627
 31
0.0
  0
LINE
  5
1BF
330
1B
100
AcDbEntity
  8
0
  6
Continuous
 62
     7
370
    25
100
AcDbLine
 10
1.9777131897
 20
0.7315859587
 30
0.0
 11
1.9777131897
 21
0.7914297403
 31
0.0
  0
LINE
  5
1C0
330
1B
100
AcDbEntity
  8
0
  6
Continuous
 62
     7
370
    25
100
AcDbLine
 10
1.9777131897
 20
0.7914297403
 30
0.0
 11
1.9366395979
 21
0.7315859587
 31
0.0
  0
LINE
  5
1C1
330
1B
100
AcDbEntity
  8
0
  6
Continuous
 62
     7
370
    25
100
AcDbLine
 10
1.9366395979
 20
0.7315859587
 30
0.0
 11
1.9777131897
 21
0.7315859587
 31
0.0
  0
LINE
  5
1C2
330
1B
100
AcDbEntity
  8
0
  6
Continuous
 62
     7
370
    25
100
AcDbLine
 10
0.0
 20
1.5254330709
 30
0.0
 11
0.0
 21
0.01
 31
0.0
  0
LINE
  5
1C3
330
1B
100
AcDbEntity
  8
0
  6
Continuous
 62
     7
370
    25
100
AcDbLine
 10
3.7
 20
0.5019685039
 30
0.0
 11
3.42
 21
0.5019685039
 31
0.0
  0
LINE
  5
1C4
330
1B
100
AcDbEntity
  8
0
  6
Continuous
 62
     7
370
    25
100
AcDbLine
 10
3.42
 20
1.0334645669
 30
0.0
 11
3.7
 21
1.0334645669
 31
0.0
  0
LINE
  5
1C5
330
1B
100
AcDbEntity
  8
0
  6
Continuous
 62
     7
370
    25
100
AcDbLine
 10
3.7
 20
0.01
 30
0.0
 11
3.7
 21
1.5254330709
 31
0.0
  0
LINE
  5
1C6
330
1B
100
AcDbEntity
  8
0
  6
Continuous
 62
     7
370
    25
100
AcDbLine
 10
3.69
 20
0.0
 30
0.0
 11
0.01
 21
0.0
 31
0.0
  0
LINE
  5
1C7
330
1B
100
AcDbEntity
  8
0
  6
Continuous
 62
     7
370
    25
100
AcDbLine
 10
0.01
 20
1.5354330709
 30
0.0
 11
3.69
 21
1.5354330709
 31
0.0
  0
ARC
  5
1C8
330
1B
100
AcDbEntity
  8
0
  6
Continuous
 62
     7
370
    25
100
AcDbCircle
 10
3.42
 20
0.7677165354
 30
0.0
 40
0.2657480314960655
100
AcDbArc
 50
112.1044545424
 51
247.8955454576
  0
ARC
  5
1C9
330
1B
100
AcDbEntity
  8
0
  6
Continuous
 62
     7
370
    25
100
AcDbCircle
 10
0.01
 20
0.01
 30
0.0
 40
0.0100000000000001
100
AcDbArc
 50
180.0
 51
270.0
  0
ARC
  5
1CA
330
1B
100
AcDbEntity
  8
0
  6
Continuous
 62
     7
370
    25
100
AcDbCircle
 10
3.69
 20
0.01
 30
0.0
 40
0.0099999999999999
100
AcDbArc
 50
270.0
 51
0.0
  0
ARC
  5
1CB
330
1B
100
AcDbEntity
  8
0
  6
Continuous
 62
     7
370
    25
100
AcDbCircle
 10
0.01
 20
1.5254330709
 30
0.0
 40
0.0099999999999991
100
AcDbArc
 50
90.0
 51
180.0
  0
ARC
  5
1CC
330
1B
100
AcDbEntity
  8
0
  6
Continuous
 62
     7
370
    25
100
AcDbCircle
 10
3.69
 20
1.5254330709
 30
0.0
 40
0.0100000000000013
100
AcDbArc
 50
0.0
 51
90.0
  0
VIEWPORT
  5
278
330
1B
100
AcDbEntity
  8
0
100
AcDbViewport
 10
0.0
 20
0.0
 30
0.0
 40
8.4
 41
6.4
 68
     1
 69
     1
 12
1.85
 22
1.85
 13
0.0
 23
0.0
 14
0.5
 24
0.5
 15
0.5
 25
0.5
 16
0.0
 26
0.0
 36
1.0
 17
0.0
 27
0.0
 37
0.0
 42
50.0
 43
0.0
 44
0.0
 45
3.774
 50
0.0
 51
0.0
 72
   100
 90
   557152
  1

281
     0
 71
     1
 74
     0
110
0.0
120
0.0
130
0.0
111
1.0
121
0.0
131
0.0
112
0.0
122
1.0
132
0.0
 79
     0
146
0.0
  0
ENDBLK
  5
1D
330
1B
100
AcDbEntity
  8
0
100
AcDbBlockEnd
  0
BLOCK
  5
24
330
23
100
AcDbEntity
  8
0
100
AcDbBlockBegin
  2
*Paper_Space1
 70
     0
 10
0.0
 20
0.0
 30
0.0
  3
*Paper_Space1
  1

  0
SPLINE
  5
1E9
330
23
100
AcDbEntity
  8
0
  6
Continuous
 62
     7
370
    25
100
AcDbSpline
210
0.0
220
0.0
230
1.0
 70
     8
 71
     3
 72
    10
 73
     6
 74
     0
 42
0.000000001
 43
0.00000001
 40
0.0
 40
0.0
 40
0.0
 40
0.0
 40
0.5
 40
0.5
 40
1.0
 40
1.0
 40
1.0
 40
1.0
 10
0.0
 20
1.013931921313065
 30
0.0
 10
0.0
 20
1.020482808329559
 30
0.0
 10
0.0010232285610331
 20
1.025336681931478
 30
0.0
 10
0.0054074384110801
 20
1.031841268680298
 30
0.0
 10
0.0088116066119903
 20
1.033464566929139
 30
0.0
 10
0.0133939444035311
 20
1.033464566929139
 30
0.0
  0
SPLINE
  5
1FA
330
23
100
AcDbEntity
  8
0
  6
Continuous
 62
     7
370
    25
100
AcDbSpline
210
0.0
220
0.0
230
1.0
 70
     8
 71
     3
 72
    10
 73
     6
 74
     0
 42
0.000000001
 43
0.00000001
 40
0.0
 40
0.0
 40
0.0
 40
0.0
 40
0.5
 40
0.5
 40
1.0
 40
1.0
 40
1.0
 40
1.0
 10
0.0133939444035305
 20
0.5019685039370099
 30
0.0
 10
0.0088126756598729
 20
0.5019685039370098
 30
0.0
 10
0.0054687828961246
 20
0.5035474720746471
 30
0.0
 10
0.0010527166121619
 20
0.5100069101154815
 30
0.0
 10
0.0000000000000005
 20
0.5149487346075491
 30
0.0
 10
0.0000000000000005
 20
0.5215011495530795
 30
0.0
  0
SPLINE
  5
213
330
23
100
AcDbEntity
  8
0
  6
Continuous
 62
     7
370
    25
100
AcDbSpline
210
0.0
220
0.0
230
1.0
 70
     8
 71
     3
 72
    11
 73
     7
 74
     0
 42
0.000000001
 43
0.00000001
 40
0.0
 40
0.0
 40
0.0
 40
0.0
 40
0.1015273679766844
 40
0.5171963762604892
 40
0.8718134436943752
 40
1.0
 40
1.0
 40
1.0
 40
1.0
 10
0.7499999999999983
 20
0.2365965371898937
 30
0.0
 10
0.7495058400120893
 20
0.2386391606691768
 30
0.0
 10
0.7469885113337945
 20
0.2490446058471946
 30
0.0
 10
0.7464209032560489
 20
0.2676545637180803
 30
0.0
 10
0.7472307528476392
 20
0.2866866198258446
 30
0.0
 10
0.7494190082465896
 20
0.2964677477116315
 30
0.0
 10
0.7499999999999984
 20
0.2990646816177042
 30
0.0
  0
SPLINE
  5
214
330
23
100
AcDbEntity
  8
0
  6
Continuous
 62
     7
370
    25
100
AcDbSpline
210
0.0
220
0.0
230
1.0
 70
     8
 71
     3
 72
    11
 73
     7
 74
     0
 42
0.000000001
 43
0.00000001
 40
0.0
 40
0.0
 40
0.0
 40
0.0
 40
0.1015273679765075
 40
0.5171963762604066
 40
0.8718134436943282
 40
1.0
 40
1.0
 40
1.0
 40
1.0
 10
0.7499999999999987
 20
1.236596537189911
 30
0.0
 10
0.7495058400120904
 20
1.23863916066919
 30
0.0
 10
0.7469885113337962
 20
1.249044605847204
 30
0.0
 10
0.7464209032560482
 20
1.267654563718085
 30
0.0
 10
0.7472307528476398
 20
1.286686619825849
 30
0.0
 10
0.7494190082465896
 20
1.296467747711636
 30
0.0
 10
0.7499999999999987
 20
1.299064681617709
 30
0.0
  0
LINE
  5
219
330
23
100
AcDbEntity
  8
0
  6
Continuous
 62
     7
370
    25
100
AcDbLine
 10
0.38
 20
0.5019685039
 30
0.0
 11
0.38
 21
0.0
 31
0.0
  0
LINE
  5
21A
330
23
100
AcDbEntity
  8
0
  6
Continuous
 62
     7
370
    25
100
AcDbLine
 10
0.4
 20
0.5019685039
 30
0.0
 11
0.0133939444
 21
0.5019685039
 31
0.0
  0
LINE
  5
21B
330
23
100
AcDbEntity
  8
0
  6
Continuous
 62
     7
370
    25
100
AcDbLine
 10
0.4
 20
0.5019685039
 30
0.0
 11
0.4
 21
1.0334645669
 31
0.0
  0
LINE
  5
21C
330
23
100
AcDbEntity
  8
0
  6
Continuous
 62
     7
370
    25
100
AcDbLine
 10
0.0133939444
 20
1.0334645669
 30
0.0
 11
0.4
 21
1.0334645669
 31
0.0
  0
LINE
  5
21D
330
23
100
AcDbEntity
  8
0
  6
Continuous
 62
     7
370
    25
100
AcDbLine
 10
0.38
 20
1.5354330709
 30
0.0
 11
0.38
 21
1.0334645669
 31
0.0
  0
LINE
  5
21E
330
23
100
AcDbEntity
  8
0
  6
Continuous
 62
     7
370
    25
100
AcDbLine
 10
0.625
 20
1.5254330709
 30
0.0
 11
0.0
 21
1.5254330709
 31
0.0
  0
LINE
  5
21F
330
23
100
AcDbEntity
  8
0
  6
Continuous
 62
     7
370
    25
100
AcDbLine
 10
0.615
 20
0.0
 30
0.0
 11
0.615
 21
1.5354330709
 31
0.0
  0
LINE
  5
220
330
23
100
AcDbEntity
  8
0
  6
Continuous
 62
     7
370
    25
100
AcDbLine
 10
2.9809048328
 20
0.0
 30
0.0
 11
2.9809048328
 21
1.5354330709
 31
0.0
  0
LINE
  5
221
330
23
100
AcDbEntity
  8
0
  6
Continuous
 62
     7
370
    25
100
AcDbLine
 10
0.76
 20
1.5354330709
 30
0.0
 11
0.76
 21
0.0
 31
0.0
  0
LINE
  5
222
330
23
100
AcDbEntity
  8
0
  6
Continuous
 62
     7
370
    25
100
AcDbLine
 10
0.0
 20
0.01
 30
0.0
 11
3.7
 21
0.01
 31
0.0
  0
LINE
  5
223
330
23
100
AcDbEntity
  8
0
  6
Continuous
 62
     7
370
    25
100
AcDbLine
 10
0.625
 20
1.5254330709
 30
0.0
 11
0.625
 21
0.01
 31
0.0
  0
LINE
  5
224
330
23
100
AcDbEntity
  8
0
  6
Continuous
 62
     7
370
    25
100
AcDbLine
 10
3.7
 20
1.5254330709
 30
0.0
 11
0.75
 21
1.5254330709
 31
0.0
  0
LINE
  5
225
330
23
100
AcDbEntity
  8
0
  6
Continuous
 62
     7
370
    25
100
AcDbLine
 10
3.2711900241
 20
1.5254330709
 30
0.0
 11
3.2711900241
 21
0.01
 31
0.0
  0
LINE
  5
226
330
23
100
AcDbEntity
  8
0
  6
Continuous
 62
     7
370
    25
100
AcDbLine
 10
3.7
 20
0.0
 30
0.0
 11
0.01
 21
0.0
 31
0.0
  0
LINE
  5
227
330
23
100
AcDbEntity
  8
0
  6
Continuous
 62
     7
370
    25
100
AcDbLine
 10
0.01
 20
1.5354330709
 30
0.0
 11
0.7595862441
 21
1.5354330709
 31
0.0
  0
LINE
  5
228
330
23
100
AcDbEntity
  8
0
  6
Continuous
 62
     7
370
    25
100
AcDbLine
 10
0.76
 20
1.5354330709
 30
0.0
 11
3.7
 21
1.5354330709
 31
0.0
  0
LINE
  5
229
330
23
100
AcDbEntity
  8
0
  6
Continuous
 62
     7
370
    25
100
AcDbLine
 10
0.75
 20
0.01
 30
0.0
 11
0.75
 21
1.5254330709
 31
0.0
  0
LINE
  5
22A
330
23
100
AcDbEntity
  8
0
  6
Continuous
 62
     7
370
    25
100
AcDbLine
 10
0.0
 20
1.5254330709
 30
0.0
 11
0.0
 21
0.01
 31
0.0
  0
LINE
  5
22B
330
23
100
AcDbEntity
  8
0
  6
Continuous
 62
     7
370
    25
100
AcDbLine
 10
3.5614752154
 20
1.5354330709
 30
0.0
 11
3.5614752154
 21
0.0
 31
0.0
  0
LINE
  5
22C
330
23
100
AcDbEntity
  8
0
  6
Continuous
 62
     7
370
    25
100
AcDbLine
 10
3.7
 20
1.5354330709
 30
0.0
 11
3.7
 21
0.0
 31
0.0
  0
LINE
  5
22D
330
23
100
AcDbEntity
  8
0
  6
Continuous
 62
     8
370
    25
100
AcDbLine
 10
0.7529289322
 20
1.5325041387
 30
0.0
 11
0.6220710678
 21
1.5325041387
 31
0.0
  0
LINE
  5
22E
330
23
100
AcDbEntity
  8
0
  6
Continuous
 62
     8
370
    25
100
AcDbLine
 10
0.625
 20
1.4883620031
 30
0.0
 11
0.75
 21
1.4883620031
 31
0.0
  0
LINE
  5
22F
330
23
100
AcDbEntity
  8
0
  6
Continuous
 62
     8
370
    25
100
AcDbLine
 10
0.75
 20
1.4812909352
 30
0.0
 11
0.625
 21
1.4812909352
 31
0.0
  0
ARC
  5
230
330
23
100
AcDbEntity
  8
0
  6
Continuous
 62
     7
370
    25
100
AcDbCircle
 10
0.615
 20
0.01
 30
0.0
 40
0.0099999999999923
100
AcDbArc
 50
270.0
 51
0.0
  0
ARC
  5
231
330
23
100
AcDbEntity
  8
0
  6
Continuous
 62
     7
370
    25
100
AcDbCircle
 10
3.2621547377
 20
0.0089980532
 30
0.0
 40
0.009090670933305
100
AcDbArc
 50
278.185706319
 51
6.3278268801
  0
ARC
  5
232
330
23
100
AcDbEntity
  8
0
  6
Continuous
 62
     7
370
    25
100
AcDbCircle
 10
0.615
 20
1.5254330709
 30
0.0
 40
0.0099999999999985
100
AcDbArc
 50
360.0
 51
90.0
  0
ARC
  5
233
330
23
100
AcDbEntity
  8
0
  6
Continuous
 62
     7
370
    25
100
AcDbCircle
 10
0.01
 20
1.5254330709
 30
0.0
 40
0.0100000000000042
100
AcDbArc
 50
90.0
 51
180.0
  0
ARC
  5
234
330
23
100
AcDbEntity
  8
0
  6
Continuous
 62
     7
370
    25
100
AcDbCircle
 10
0.76
 20
1.5254330709
 30
0.0
 40
0.0100000000000009
100
AcDbArc
 50
90.0
 51
180.0
  0
ARC
  5
235
330
23
100
AcDbEntity
  8
0
  6
Continuous
 62
     7
370
    25
100
AcDbCircle
 10
0.76
 20
0.01
 30
0.0
 40
0.0099999999999993
100
AcDbArc
 50
180.0
 51
270.0
  0
ARC
  5
236
330
23
100
AcDbEntity
  8
0
  6
Continuous
 62
     7
370
    25
100
AcDbCircle
 10
3.2621547377
 20
1.5264350177
 30
0.0
 40
0.0090906709333057
100
AcDbArc
 50
353.6721731199
 51
81.814293681
  0
ARC
  5
237
330
23
100
AcDbEntity
  8
0
  6
Continuous
 62
     7
370
    25
100
AcDbCircle
 10
0.01
 20
0.01
 30
0.0
 40
0.0100000000000009
100
AcDbArc
 50
180.0
 51
270.0
  0
VIEWPORT
  5
27A
330
23
100
AcDbEntity
  8
0
100
AcDbViewport
 10
0.0
 20
0.0
 30
0.0
 40
8.4
 41
6.4
 68
     1
 69
     1
 12
1.85
 22
1.85
 13
0.0
 23
0.0
 14
0.5
 24
0.5
 15
0.5
 25
0.5
 16
0.0
 26
0.0
 36
1.0
 17
0.0
 27
0.0
 37
0.0
 42
50.0
 43
0.0
 44
0.0
 45
3.774
 50
0.0
 51
0.0
 72
   100
 90
   557152
  1

281
     0
 71
     1
 74
     0
110
0.0
120
0.0
130
0.0
111
1.0
121
0.0
131
0.0
112
0.0
122
1.0
132
0.0
 79
     0
146
0.0
  0
ENDBLK
  5
25
330
23
100
AcDbEntity
  8
0
100
AcDbBlockEnd
  0
ENDSEC
  0
SECTION
  2
ENTITIES
  0
SPLINE
  5
74
330
1F
100
AcDbEntity
  8
0
  6
Continuous
 62
     7
370
    25
100
AcDbSpline
210
0.0
220
0.0
230
1.0
 70
     8
 71
     3
 72
     8
 73
     4
 74
     0
 42
0.000000001
 43
0.00000001
 40
0.0000000000000087
 40
0.0000000000000087
 40
0.0000000000000087
 40
0.0000000000000087
 40
0.0000362748503804
 40
0.0000362748503804
 40
0.0000362748503804
 40
0.0000362748503804
 10
2.98429748510921
 20
0.7614373513771757
 30
0.0
 10
2.984231889046233
 20
0.7609662616101677
 30
0.0
 10
2.984199393379551
 20
0.7604890676838154
 30
0.0
 10
2.984198906327452
 20
0.7600130204301948
 30
0.0
  0
SPLINE
  5
75
330
1F
100
AcDbEntity
  8
0
  6
Continuous
 62
     7
370
    25
100
AcDbSpline
210
0.0
220
0.0
230
1.0
 70
     8
 71
     3
 72
     8
 73
     4
 74
     0
 42
0.000000001
 43
0.00000001
 40
0.0
 40
0.0
 40
0.0
 40
0.0
 40
1.0
 40
1.0
 40
1.0
 40
1.0
 10
2.984297485109209
 20
0.7614373513775125
 30
0.0
 10
2.985042784363725
 20
0.7667898502354263
 30
0.0
 10
2.986529295498301
 20
0.7719391867039659
 30
0.0
 10
2.988312291191001
 20
0.7767653954964491
 30
0.0
  0
SPLINE
  5
7A
330
1F
100
AcDbEntity
  8
0
  6
Continuous
 62
     7
370
    25
100
AcDbSpline
210
0.0
220
0.0
230
1.0
 70
     8
 71
     3
 72
    11
 73
     7
 74
     0
 42
0.000000001
 43
0.00000001
 40
0.0
 40
0.0
 40
0.0
 40
0.0
 40
0.0005080020917413
 40
0.0005080020917413
 40
0.0005080020917413
 40
0.0011442161167429
 40
0.0011442161167429
 40
0.0011442161167429
 40
0.0011442161167429
 10
2.988220499682802
 20
0.8153324678947277
 30
0.0
 10
2.988234160507025
 20
0.8096029852866339
 30
0.0
 10
2.988247789642537
 20
0.8038833655267986
 30
0.0
 10
2.988261383984182
 20
0.7981734344840622
 30
0.0
 10
2.988278409295111
 20
0.7910224187211428
 30
0.0
 10
2.988295380204539
 20
0.7838865201308357
 30
0.0
 10
2.988312291191001
 20
0.7767653954964491
 30
0.0
  0
SPLINE
  5
7C
330
1F
100
AcDbEntity
  8
0
  6
Continuous
 62
     7
370
    25
100
AcDbSpline
210
0.0
220
0.0
230
1.0
 70
    24
 71
     3
 72
     8
 73
     4
 74
     0
 42
0.000000001
 43
0.00000001
 40
0.0
 40
0.0
 40
0.0
 40
0.0
 40
1.0
 40
1.0
 40
1.0
 40
1.0
 10
2.983914245665444
 20
0.7599999999999989
 30
0.0
 10
2.983914245665444
 20
0.7769624479499814
 30
0.0
 10
2.983914245665446
 20
0.7940062439250344
 30
0.0
 10
2.983914245665446
 20
0.8111394669783045
 30
0.0
  0
SPLINE
  5
7D
330
1F
100
AcDbEntity
  8
0
  6
Continuous
 62
     7
370
    25
100
AcDbSpline
210
0.0
220
0.0
230
1.0
 70
     8
 71
     3
 72
     8
 73
     4
 74
     0
 42
0.000000001
 43
0.00000001
 40
0.0
 40
0.0
 40
0.0
 40
0.0
 40
1.0
 40
1.0
 40
1.0
 40
1.0
 10
2.984215433755689
 20
0.7593518341023352
 30
0.0
 10
2.984331702889251
 20
0.7570767334572798
 30
0.0
 10
2.985059997415419
 20
0.7549815586199149
 30
0.0
 10
2.986283236361065
 20
0.753537206718111
 30
0.0
  0
SPLINE
  5
B3
330
1F
100
AcDbEntity
  8
0
  6
Continuous
 62
     7
370
    25
100
AcDbSpline
210
0.0
220
0.0
230
1.0
 70
     8
 71
     3
 72
    14
 73
    10
 74
     0
 42
0.000000001
 43
0.00000001
 40
0.0
 40
0.0
 40
0.0
 40
0.0
 40
0.25
 40
0.25
 40
0.5
 40
0.5
 40
0.75
 40
0.75
 40
1.0
 40
1.0
 40
1.0
 40
1.0
 10
3.007461459211916
 20
0.8790267096498409
 30
0.0
 10
3.00410741952677
 20
0.8740143294360767
 30
0.0
 10
3.001172215404947
 20
0.8687500191481933
 30
0.0
 10
2.996277976355856
 20
0.8581525641222545
 30
0.0
 10
2.994283768348056
 20
0.852771192133362
 30
0.0
 10
2.991129238239385
 20
0.8418546798404959
 30
0.0
 10
2.98999534259469
 20
0.8363845550575497
 30
0.0
 10
2.988541999143556
 20
0.825728950001733
 30
0.0
 10
2.988208198255626
 20
0.8204918061531957
 30
0.0
 10
2.988220499682801
 20
0.8153324678947279
 30
0.0
  0
SPLINE
  5
B5
330
1F
100
AcDbEntity
  8
0
  6
Continuous
 62
     7
370
    25
100
AcDbSpline
210
0.0
220
0.0
230
1.0
 70
     8
 71
     3
 72
    14
 73
    10
 74
     0
 42
0.000000001
 43
0.00000001
 40
0.0
 40
0.0
 40
0.0
 40
0.0
 40
0.2499999999999993
 40
0.2499999999999993
 40
0.4999999999999986
 40
0.4999999999999986
 40
0.7499999999999992
 40
0.7499999999999992
 40
1.0
 40
1.0
 40
1.0
 40
1.0
 10
2.826899630147223
 20
0.6201385094026787
 30
0.0
 10
2.820874442075171
 20
0.6201534305826298
 30
0.0
 10
2.814727508627458
 20
0.6196992205755848
 30
0.0
 10
2.802134284080863
 20
0.6176739590797095
 30
0.0
 10
2.795710716436201
 20
0.6160963104942838
 30
0.0
 10
2.782955421947081
 20
0.6116982240926913
 30
0.0
 10
2.776482667512559
 20
0.6088144560650475
 30
0.0
 10
2.764135370812373
 20
0.6018199647454732
 30
0.0
 10
2.758235582098775
 20
0.5977236678300436
 30
0.0
 10
2.752639789638072
 20
0.5929612030380145
 30
0.0
  0
SPLINE
  5
B6
330
1F
100
AcDbEntity
  8
0
  6
Continuous
 62
     7
370
    25
100
AcDbSpline
210
0.0
220
0.0
230
1.0
 70
     8
 71
     3
 72
    11
 73
     7
 74
     0
 42
0.000000001
 43
0.00000001
 40
0.0
 40
0.0
 40
0.0
 40
0.0
 40
0.0005080010129737
 40
0.0005080010129737
 40
0.0005080010129737
 40
0.0006590227004123
 40
0.0006590227004123
 40
0.0006590227004123
 40
0.0006590227004123
 10
2.848228549225723
 20
0.620085933974581
 30
0.0
 10
2.842758038389401
 20
0.6200993549633147
 30
0.0
 10
2.83727998963358
 20
0.6201128441711408
 30
0.0
 10
2.831794222679381
 20
0.6201264008575554
 30
0.0
 10
2.830163376882367
 20
0.6201304310807213
 30
0.0
 10
2.828531847639947
 20
0.6201344672697798
 30
0.0
 10
2.826899630147223
 20
0.6201385094026787
 30
0.0
  0
SPLINE
  5
B8
330
1F
100
AcDbEntity
  8
0
  6
Continuous
 62
     7
370
    25
100
AcDbSpline
210
0.0
220
0.0
230
1.0
 70
    24
 71
     3
 72
     8
 73
     4
 74
     0
 42
0.000000001
 43
0.00000001
 40
0.0
 40
0.0
 40
0.0
 40
0.0
 40
0.0006601695436526
 40
0.0006601695436526
 40
0.0006601695436526
 40
0.0006601695436526
 10
2.831757172850953
 20
0.6249999999999994
 30
0.0
 10
2.838898186984749
 20
0.6249999999999994
 30
0.0
 10
2.846026035661509
 20
0.6250000000000003
 30
0.0
 10
2.85314111226412
 20
0.6250000000000003
 30
0.0
  0
SPLINE
  5
B9
330
1F
100
AcDbEntity
  8
0
  6
Continuous
 62
     7
370
    25
100
AcDbSpline
210
0.0
220
0.0
230
1.0
 70
     8
 71
     3
 72
    14
 73
    10
 74
     0
 42
0.000000001
 43
0.00000001
 40
0.0
 40
0.0
 40
0.0
 40
0.0
 40
0.25
 40
0.25
 40
0.5
 40
0.5
 40
0.75
 40
0.75
 40
1.0
 40
1.0
 40
1.0
 40
1.0
 10
2.750741473726803
 20
0.5951916829109792
 30
0.0
 10
2.75677417688347
 20
0.6003259934820291
 30
0.0
 10
2.763142819805181
 20
0.6047670704691099
 30
0.0
 10
2.776494293634034
 20
0.6123836406209796
 30
0.0
 10
2.783510415437053
 20
0.6155487349625105
 30
0.0
 10
2.797415550980418
 20
0.6204155835417221
 30
0.0
 10
2.804446690929901
 20
0.6221818573774183
 30
0.0
 10
2.81829708487748
 20
0.6244712606455897
 30
0.0
 10
2.825084315935829
 20
0.6249999999999988
 30
0.0
 10
2.831757172850952
 20
0.6249999999999989
 30
0.0
  0
SPLINE
  5
BB
330
1F
100
AcDbEntity
  8
0
  6
Continuous
 62
     7
370
    25
100
AcDbSpline
210
0.0
220
0.0
230
1.0
 70
     8
 71
     3
 72
    14
 73
    10
 74
     0
 42
0.000000001
 43
0.00000001
 40
0.0
 40
0.0
 40
0.0
 40
0.0
 40
0.25
 40
0.25
 40
0.5
 40
0.5
 40
0.75
 40
0.75
 40
1.0
 40
1.0
 40
1.0
 40
1.0
 10
2.983914245665446
 20
0.8111394669783045
 30
0.0
 10
2.983914245665445
 20
0.8168424843699301
 30
0.0
 10
2.984301925752545
 20
0.8226148800512949
 30
0.0
 10
2.985940096027737
 20
0.8343186365094464
 30
0.0
 10
2.987206495553574
 20
0.8403051506810301
 30
0.0
 10
2.990688603819821
 20
0.8522017508082559
 30
0.0
 10
2.992878334572044
 20
0.8580523821138613
 30
0.0
 10
2.998217407896696
 20
0.869546353368448
 30
0.0
 10
3.001400941076578
 20
0.875236327800429
 30
0.0
 10
3.005027235139449
 20
0.8806555733420144
 30
0.0
  0
LINE
  5
BE
330
1F
100
AcDbEntity
  8
0
  6
Continuous
 62
     7
370
    25
100
AcDbLine
 10
2.9841989063
 20
0.7600130204
 30
0.0
 11
2.9842154338
 21
0.76
 31
0.0
  0
LINE
  5
BF
330
1F
100
AcDbEntity
  8
0
  6
Continuous
 62
     7
370
    25
100
AcDbLine
 10
2.8531411123
 20
0.615
 30
0.0
 11
2.8482285492
 21
0.620085934
 31
0.0
  0
LINE
  5
C0
330
1F
100
AcDbEntity
  8
0
  6
Continuous
 62
     7
370
    25
100
AcDbLine
 10
3.4148031496
 20
3.5614752154
 30
0.0
 11
3.4248031496
 21
3.5614752154
 31
0.0
  0
LINE
  5
C1
330
1F
100
AcDbEntity
  8
0
  6
Continuous
 62
     7
370
    25
100
AcDbLine
 10
3.5560708661
 20
3.2634490857
 30
0.0
 11
3.5624015748
 21
3.2711900241
 31
0.0
  0
LINE
  5
C2
330
1F
100
AcDbEntity
  8
0
  6
Continuous
 62
     7
370
    25
100
AcDbLine
 10
3.7
 20
0.615
 30
0.0
 11
2.8531411123
 21
0.615
 31
0.0
  0
LINE
  5
C3
330
1F
100
AcDbEntity
  8
0
  6
Continuous
 62
     7
370
    25
100
AcDbLine
 10
3.69
 20
0.38
 30
0.0
 11
3.69
 21
0.625
 31
0.0
  0
LINE
  5
C4
330
1F
100
AcDbEntity
  8
0
  6
Continuous
 62
     7
370
    25
100
AcDbLine
 10
0.38
 20
0.01
 30
0.0
 11
3.32
 21
0.01
 31
0.0
  0
LINE
  5
C5
330
1F
100
AcDbEntity
  8
0
  6
Continuous
 62
     7
370
    25
100
AcDbLine
 10
0.01
 20
2.9809048328
 30
0.0
 11
0.01
 21
0.38
 31
0.0
  0
LINE
  5
C6
330
1F
100
AcDbEntity
  8
0
  6
Continuous
 62
     7
370
    25
100
AcDbLine
 10
0.2851968504
 20
3.7
 30
0.0
 11
0.2851968504
 21
3.5614752154
 31
0.0
  0
LINE
  5
C7
330
1F
100
AcDbEntity
  8
0
  6
Continuous
 62
     7
370
    25
100
AcDbLine
 10
3.4248031496
 20
3.7
 30
0.0
 11
0.2751968504
 21
3.7
 31
0.0
  0
LINE
  5
C8
330
1F
100
AcDbEntity
  8
0
  6
Continuous
 62
     7
370
    25
100
AcDbLine
 10
3.4148031496
 20
3.5614752154
 30
0.0
 11
3.4148031496
 21
3.7
 31
0.0
  0
LINE
  5
C9
330
1F
100
AcDbEntity
  8
0
  6
Continuous
 62
     7
370
    25
100
AcDbLine
 10
3.69
 20
0.75
 30
0.0
 11
3.69
 21
2.9809048328
 31
0.0
  0
LINE
  5
CA
330
1F
100
AcDbEntity
  8
0
  6
Continuous
 62
     7
370
    25
100
AcDbLine
 10
2.9842154338
 20
0.76
 30
0.0
 11
3.7
 21
0.76
 31
0.0
  0
LINE
  5
CB
330
1F
100
AcDbEntity
  8
0
  6
Continuous
 62
     7
370
    25
100
AcDbLine
 10
3.7
 20
0.38
 30
0.0
 11
3.69
 21
0.38
 31
0.0
  0
LINE
  5
CC
330
1F
100
AcDbEntity
  8
0
  6
Continuous
 62
     7
370
    25
100
AcDbLine
 10
3.7
 20
0.615
 30
0.0
 11
3.7
 21
0.38
 31
0.0
  0
LINE
  5
CD
330
1F
100
AcDbEntity
  8
0
  6
Continuous
 62
     7
370
    25
100
AcDbLine
 10
3.69
 20
2.9809048328
 30
0.0
 11
3.7
 21
2.9809048328
 31
0.0
  0
LINE
  5
CE
330
1F
100
AcDbEntity
  8
0
  6
Continuous
 62
     7
370
    25
100
AcDbLine
 10
2.8531411123
 20
0.625
 30
0.0
 11
3.69
 21
0.625
 31
0.0
  0
LINE
  5
CF
330
1F
100
AcDbEntity
  8
0
  6
Continuous
 62
     7
370
    25
100
AcDbLine
 10
2.8531411123
 20
0.625
 30
0.0
 11
2.8531411123
 21
0.615
 31
0.0
  0
LINE
  5
D0
330
1F
100
AcDbEntity
  8
0
  6
Continuous
 62
     7
370
    25
100
AcDbLine
 10
3.7
 20
2.9809048328
 30
0.0
 11
3.7
 21
0.76
 31
0.0
  0
LINE
  5
D1
330
1F
100
AcDbEntity
  8
0
  6
Continuous
 62
     7
370
    25
100
AcDbLine
 10
2.9842154338
 20
0.76
 30
0.0
 11
2.9842154338
 21
0.7593518341
 31
0.0
  0
LINE
  5
D2
330
1F
100
AcDbEntity
  8
0
  6
Continuous
 62
     7
370
    25
100
AcDbLine
 10
3.69
 20
0.75
 30
0.0
 11
2.9939142457
 21
0.75
 31
0.0
  0
LINE
  5
D3
330
1F
100
AcDbEntity
  8
0
  6
Continuous
 62
     7
370
    25
100
AcDbLine
 10
3.32
 20
0.0
 30
0.0
 11
3.32
 21
0.01
 31
0.0
  0
LINE
  5
D4
330
1F
100
AcDbEntity
  8
0
  6
Continuous
 62
     7
370
    25
100
AcDbLine
 10
3.32
 20
0.0
 30
0.0
 11
0.38
 21
0.0
 31
0.0
  0
LINE
  5
D5
330
1F
100
AcDbEntity
  8
0
  6
Continuous
 62
     7
370
    25
100
AcDbLine
 10
0.38
 20
0.0
 30
0.0
 11
0.38
 21
0.01
 31
0.0
  0
LINE
  5
D6
330
1F
100
AcDbEntity
  8
0
  6
Continuous
 62
     7
370
    25
100
AcDbLine
 10
3.4248031496
 20
3.7
 30
0.0
 11
3.4248031496
 21
3.5614752154
 31
0.0
  0
LINE
  5
D7
330
1F
100
AcDbEntity
  8
0
  6
Continuous
 62
     7
370
    25
100
AcDbLine
 10
0.2751968504
 20
3.5614752154
 30
0.0
 11
0.2851968504
 21
3.5614752154
 31
0.0
  0
LINE
  5
D8
330
1F
100
AcDbEntity
  8
0
  6
Continuous
 62
     7
370
    25
100
AcDbLine
 10
0.2751968504
 20
3.5614752154
 30
0.0
 11
0.2751968504
 21
3.7
 31
0.0
  0
LINE
  5
D9
330
1F
100
AcDbEntity
  8
0
  6
Continuous
 62
     7
370
    25
100
AcDbLine
 10
0.0
 20
0.38
 30
0.0
 11
0.01
 21
0.38
 31
0.0
  0
LINE
  5
DA
330
1F
100
AcDbEntity
  8
0
  6
Continuous
 62
     7
370
    25
100
AcDbLine
 10
0.1375984252
 20
3.2711900241
 30
0.0
 11
0.1439291339
 21
3.2634490857
 31
0.0
  0
LINE
  5
DB
330
1F
100
AcDbEntity
  8
0
  6
Continuous
 62
     7
370
    25
100
AcDbLine
 10
0.0
 20
2.9809048328
 30
0.0
 11
0.01
 21
2.9809048328
 31
0.0
  0
LINE
  5
DC
330
1F
100
AcDbEntity
  8
0
  6
Continuous
 62
     7
370
    25
100
AcDbLine
 10
0.0
 20
0.38
 30
0.0
 11
0.0
 21
2.9809048328
 31
0.0
  0
LINE
  5
DD
330
1F
100
AcDbEntity
  8
0
  6
Continuous
 62
     7
370
    25
100
AcDbLine
 10
2.7526397896
 20
0.592961203
 30
0.0
 11
2.7507414737
 21
0.5951916829
 31
0.0
  0
LINE
  5
DE
330
1F
100
AcDbEntity
  8
0
  6
Continuous
 62
     7
370
    25
100
AcDbLine
 10
3.0074614592
 20
0.8790267096
 30
0.0
 11
3.0050272351
 21
0.8806555733
 31
0.0
  0
ARC
  5
DF
330
1F
100
AcDbEntity
  8
0
  6
Continuous
 62
     7
370
    25
100
AcDbCircle
 10
1.85
 20
1.6535433071
 30
0.0
 40
1.436834847339422
100
AcDbArc
 50
322.3949628391
 51
314.0066079376
  0
ARC
  5
E0
330
1F
100
AcDbEntity
  8
0
  6
Continuous
 62
     7
370
    25
100
AcDbCircle
 10
1.85
 20
1.6535433071
 30
0.0
 40
1.443905915151289
100
AcDbArc
 50
321.7686987171
 51
314.0066079376
  0
ARC
  5
E1
330
1F
100
AcDbEntity
  8
0
  6
Continuous
 62
     7
370
    25
100
AcDbCircle
 10
2.9891817377
 20
0.8100374833
 30
0.0
 40
0.0053815276658162
100
AcDbArc
 50
100.2892756124
 51
168.1838750956
  0
ARC
  5
E2
330
1F
100
AcDbEntity
  8
0
  6
Continuous
 62
     7
370
    25
100
AcDbCircle
 10
2.9869098798
 20
0.7599710444
 30
0.0
 40
0.0029957740675346
100
AcDbArc
 50
150.6950048158
 51
179.4461992737
  0
ARC
  5
E3
330
1F
100
AcDbEntity
  8
0
  6
Continuous
 62
     7
370
    25
100
AcDbCircle
 10
2.9939142457
 20
0.76
 30
0.0
 40
0.0100000000039397
100
AcDbArc
 50
180.0000000048
 51
270.0
  0
ARC
  5
E4
330
1F
100
AcDbEntity
  8
0
  6
Continuous
 62
     7
370
    25
100
AcDbCircle
 10
2.9969018753
 20
0.7599997521
 30
0.0
 40
0.012702975895685
100
AcDbArc
 50
179.9401541446
 51
182.923651986
  0
ARC
  5
E5
330
1F
100
AcDbEntity
  8
0
  6
Continuous
 62
     7
370
    25
100
AcDbCircle
 10
3.7998031496
 20
3.5614752154
 30
0.0
 40
0.3849999999999955
100
AcDbArc
 50
180.0
 51
230.7229493795
  0
ARC
  5
E6
330
1F
100
AcDbEntity
  8
0
  6
Continuous
 62
     7
370
    25
100
AcDbCircle
 10
3.7998031496
 20
3.5614752154
 30
0.0
 40
0.375000000000017
100
AcDbArc
 50
180.0
 51
230.7229493795
  0
ARC
  5
E7
330
1F
100
AcDbEntity
  8
0
  6
Continuous
 62
     7
370
    25
100
AcDbCircle
 10
3.32
 20
0.38
 30
0.0
 40
0.3700000000000037
100
AcDbArc
 50
270.0
 51
0.0
  0
ARC
  5
E8
330
1F
100
AcDbEntity
  8
0
  6
Continuous
 62
     7
370
    25
100
AcDbCircle
 10
0.38
 20
0.38
 30
0.0
 40
0.3699999999999996
100
AcDbArc
 50
180.0
 51
270.0
  0
ARC
  5
E9
330
1F
100
AcDbEntity
  8
0
  6
Continuous
 62
     7
370
    25
100
AcDbCircle
 10
0.375
 20
2.9809048328
 30
0.0
 40
0.3649999999999945
100
AcDbArc
 50
129.2770506205
 51
180.0
  0
ARC
  5
EA
330
1F
100
AcDbEntity
  8
0
  6
Continuous
 62
     7
370
    25
100
AcDbCircle
 10
-0.0998031496
 20
3.5614752154
 30
0.0
 40
0.3849999999999789
100
AcDbArc
 50
309.2770506205
 51
0.0
  0
ARC
  5
EB
330
1F
100
AcDbEntity
  8
0
  6
Continuous
 62
     7
370
    25
100
AcDbCircle
 10
3.325
 20
2.9809048328
 30
0.0
 40
0.3650000000000162
100
AcDbArc
 50
0.0
 51
50.7229493795
  0
ARC
  5
EC
330
1F
100
AcDbEntity
  8
0
  6
Continuous
 62
     7
370
    25
100
AcDbCircle
 10
3.325
 20
2.9809048328
 30
0.0
 40
0.3749999999999973
100
AcDbArc
 50
0.0
 51
50.7229493795
  0
ARC
  5
ED
330
1F
100
AcDbEntity
  8
0
  6
Continuous
 62
     7
370
    25
100
AcDbCircle
 10
3.69
 20
0.615
 30
0.0
 40
0.0099999999999949
100
AcDbArc
 50
360.0
 51
90.0
  0
ARC
  5
EE
330
1F
100
AcDbEntity
  8
0
  6
Continuous
 62
     7
370
    25
100
AcDbCircle
 10
3.69
 20
0.76
 30
0.0
 40
0.0100000000000029
100
AcDbArc
 50
270.0
 51
360.0
  0
ARC
  5
EF
330
1F
100
AcDbEntity
  8
0
  6
Continuous
 62
     7
370
    25
100
AcDbCircle
 10
3.32
 20
0.38
 30
0.0
 40
0.3800000000000008
100
AcDbArc
 50
270.0
 51
0.0
  0
ARC
  5
F0
330
1F
100
AcDbEntity
  8
0
  6
Continuous
 62
     7
370
    25
100
AcDbCircle
 10
2.8542287682
 20
0.6190001135
 30
0.0
 40
0.0060976744382535
100
AcDbArc
 50
100.2749623107
 51
169.742564516
  0
ARC
  5
F1
330
1F
100
AcDbEntity
  8
0
  6
Continuous
 62
     7
370
    25
100
AcDbCircle
 10
0.38
 20
0.38
 30
0.0
 40
0.3799999999999983
100
AcDbArc
 50
180.0
 51
270.0
  0
ARC
  5
F2
330
1F
100
AcDbEntity
  8
0
  6
Continuous
 62
     7
370
    25
100
AcDbCircle
 10
0.375
 20
2.9809048328
 30
0.0
 40
0.3749999999999949
100
AcDbArc
 50
129.2770506205
 51
180.0
  0
ARC
  5
F3
330
1F
100
AcDbEntity
  8
0
  6
Continuous
 62
     7
370
    25
100
AcDbCircle
 10
-0.0998031496
 20
3.5614752154
 30
0.0
 40
0.3750000000000122
100
AcDbArc
 50
309.2770506205
 51
0.0
  0
ARC
  5
F4
330
1F
100
AcDbEntity
  8
0
  6
Continuous
 62
     7
370
    25
100
AcDbCircle
 10
1.85
 20
1.6535433071
 30
0.0
 40
1.392692711715695
100
AcDbArc
 50
326.211497526
 51
310.4004282445
  0
ARC
  5
F5
330
1F
100
AcDbEntity
  8
0
  6
Continuous
 62
     7
370
    25
100
AcDbCircle
 10
2.8328441088
 20
0.6190564024
 30
0.0
 40
0.0060421669722851
100
AcDbArc
 50
100.3634540374
 51
169.6830933139
  0
ARC
  5
F6
330
1F
100
AcDbEntity
  8
0
  6
Continuous
 62
     7
370
    25
100
AcDbCircle
 10
1.85
 20
1.6535433071
 30
0.0
 40
1.389763779527564
100
AcDbArc
 50
326.211497526
 51
310.4004282445
  0
CIRCLE
  5
243
330
238
100
AcDbEntity
 67
     1
  8
0
  6
Continuous
 62
     7
370
    25
100
AcDbCircle
 10
-3.1
 20
1.2677165354
 30
0.0
 40
0.1043307086614171
  0
CIRCLE
  5
244
330
238
100
AcDbEntity
 67
     1
  8
0
  6
Continuous
 62
     7
370
    25
100
AcDbCircle
 10
-3.1
 20
0.2677165354
 30
0.0
 40
0.1043307086614154
  0
CIRCLE
  5
245
330
238
100
AcDbEntity
 67
     1
  8
0
  6
Continuous
 62
     7
370
    25
100
AcDbCircle
 10
-0.6
 20
0.2677165354
 30
0.0
 40
0.1043307086614167
  0
CIRCLE
  5
246
330
238
100
AcDbEntity
 67
     1
  8
0
  6
Continuous
 62
     7
370
    25
100
AcDbCircle
 10
-0.6
 20
1.2677165354
 30
0.0
 40
0.1043307086614166
  0
LWPOLYLINE
  5
249
330
238
100
AcDbEntity
 67
     1
  8
0
  6
Continuous
 62
     7
370
    25
100
AcDbPolyline
 90
        9
 70
   128
 43
0.0
 10
-3.5560708661
 20
1.5354330709
 10
-3.5573059261
 20
1.5352409237
 10
-3.5584935235
 20
1.5346718662
 10
-3.5595880194
 20
1.533747767
 10
-3.5605473532
 20
1.5325041387
 10
-3.561334658
 20
1.5309887732
 10
-3.5619196783
 20
1.5292599052
 10
-3.562279932
 20
1.5273839741
 10
-3.5624015748
 20
1.5254330709
  0
LWPOLYLINE
  5
24E
330
238
100
AcDbEntity
 67
     1
  8
0
  6
Continuous
 62
     7
370
    25
100
AcDbPolyline
 90
        9
 70
   128
 43
0.0
 10
-0.1375984252
 20
0.01
 10
-0.137720068
 20
0.0080490968
 10
-0.1380803217
 20
0.0061731657
 10
-0.138665342
 20
0.0044442977
 10
-0.1394526468
 20
0.0029289322
 10
-0.1404119806
 20
0.0016853039
 10
-0.1415064765
 20
0.0007612047
 10
-0.1426940739
 20
0.0001921472
 10
-0.1439291339
 20
0.0
  0
LWPOLYLINE
  5
250
330
238
100
AcDbEntity
 67
     1
  8
0
  6
Continuous
 62
     7
370
    25
100
AcDbPolyline
 90
        9
 70
   128
 43
0.0
 10
-0.1375984252
 20
1.5254330709
 10
-0.137720068
 20
1.5273839741
 10
-0.1380803217
 20
1.5292599052
 10
-0.138665342
 20
1.5309887732
 10
-0.1394526468
 20
1.5325041387
 10
-0.1404119806
 20
1.533747767
 10
-0.1415064765
 20
1.5346718662
 10
-0.1426940739
 20
1.5352409237
 10
-0.1439291339
 20
1.5354330709
  0
LWPOLYLINE
  5
253
330
238
100
AcDbEntity
 67
     1
  8
0
  6
Continuous
 62
     7
370
    25
100
AcDbPolyline
 90
        9
 70
   128
 43
0.0
 10
-3.5624015748
 20
0.01
 10
-3.562279932
 20
0.0080490968
 10
-3.5619196783
 20
0.0061731657
 10
-3.561334658
 20
0.0044442977
 10
-3.5605473532
 20
0.0029289322
 10
-3.5595880194
 20
0.0016853039
 10
-3.5584935235
 20
0.0007612047
 10
-3.5573059261
 20
0.0001921472
 10
-3.5560708661
 20
0.0
  0
LINE
  5
264
330
238
100
AcDbEntity
 67
     1
  8
0
  6
Continuous
 62
     7
370
    25
100
AcDbLine
 10
-3.69
 20
1.5354330709
 30
0.0
 11
-0.01
 21
1.5354330709
 31
0.0
  0
LINE
  5
265
330
238
100
AcDbEntity
 67
     1
  8
0
  6
Continuous
 62
     7
370
    25
100
AcDbLine
 10
-0.2751968504
 20
1.5254330709
 30
0.0
 11
-0.2751968504
 21
0.01
 31
0.0
  0
LINE
  5
266
330
238
100
AcDbEntity
 67
     1
  8
0
  6
Continuous
 62
     7
370
    25
100
AcDbLine
 10
-3.69
 20
0.0
 30
0.0
 11
-0.01
 21
0.0
 31
0.0
  0
LINE
  5
267
330
238
100
AcDbEntity
 67
     1
  8
0
  6
Continuous
 62
     7
370
    25
100
AcDbLine
 10
-3.4248031496
 20
1.5254330709
 30
0.0
 11
-3.4248031496
 21
0.01
 31
0.0
  0
LINE
  5
268
330
238
100
AcDbEntity
 67
     1
  8
0
  6
Continuous
 62
     7
370
    25
100
AcDbLine
 10
-3.4248031496
 20
1.5254330709
 30
0.0
 11
-3.7
 21
1.5254330709
 31
0.0
  0
LINE
  5
269
330
238
100
AcDbEntity
 67
     1
  8
0
  6
Continuous
 62
     7
370
    25
100
AcDbLine
 10
0.0
 20
1.5254330709
 30
0.0
 11
-0.2751968504
 21
1.5254330709
 31
0.0
  0
LINE
  5
26A
330
238
100
AcDbEntity
 67
     1
  8
0
  6
Continuous
 62
     7
370
    25
100
AcDbLine
 10
-0.1375984252
 20
0.01
 30
0.0
 11
-0.1375984252
 21
1.5254330709
 31
0.0
  0
LINE
  5
26B
330
238
100
AcDbEntity
 67
     1
  8
0
  6
Continuous
 62
     7
370
    25
100
AcDbLine
 10
-0.2751968504
 20
0.01
 30
0.0
 11
0.0
 21
0.01
 31
0.0
  0
LINE
  5
26C
330
238
100
AcDbEntity
 67
     1
  8
0
  6
Continuous
 62
     7
370
    25
100
AcDbLine
 10
-3.7
 20
0.01
 30
0.0
 11
-3.4248031496
 21
0.01
 31
0.0
  0
LINE
  5
26D
330
238
100
AcDbEntity
 67
     1
  8
0
  6
Continuous
 62
     7
370
    25
100
AcDbLine
 10
-3.5624015748
 20
1.5254330709
 30
0.0
 11
-3.5624015748
 21
0.01
 31
0.0
  0
LINE
  5
26E
330
238
100
AcDbEntity
 67
     1
  8
0
  6
Continuous
 62
     7
370
    25
100
AcDbLine
 10
0.0
 20
1.5254330709
 30
0.0
 11
0.0
 21
0.01
 31
0.0
  0
LINE
  5
26F
330
238
100
AcDbEntity
 67
     1
  8
0
  6
Continuous
 62
     7
370
    25
100
AcDbLine
 10
-3.7
 20
0.01
 30
0.0
 11
-3.7
 21
1.5254330709
 31
0.0
  0
ARC
  5
270
330
238
100
AcDbEntity
 67
     1
  8
0
  6
Continuous
 62
     7
370
    25
100
AcDbCircle
 10
-3.4148031496
 20
0.01
 30
0.0
 40
0.010000000000002
100
AcDbArc
 50
180.0
 51
270.0
  0
ARC
  5
271
330
238
100
AcDbEntity
 67
     1
  8
0
  6
Continuous
 62
     7
370
    25
100
AcDbCircle
 10
-3.4148031496
 20
1.5254330709
 30
0.0
 40
0.0099999999999998
100
AcDbArc
 50
90.0
 51
180.0
  0
ARC
  5
272
330
238
100
AcDbEntity
 67
     1
  8
0
  6
Continuous
 62
     7
370
    25
100
AcDbCircle
 10
-0.2851968504
 20
1.5254330709
 30
0.0
 40
0.0100000000000016
100
AcDbArc
 50
360.0
 51
90.0
  0
ARC
  5
273
330
238
100
AcDbEntity
 67
     1
  8
0
  6
Continuous
 62
     7
370
    25
100
AcDbCircle
 10
-0.2851968504
 20
0.01
 30
0.0
 40
0.0099999999999983
100
AcDbArc
 50
270.0
 51
0.0
  0
ARC
  5
274
330
238
100
AcDbEntity
 67
     1
  8
0
  6
Continuous
 62
     7
370
    25
100
AcDbCircle
 10
-0.01
 20
0.01
 30
0.0
 40
0.0100000000000052
100
AcDbArc
 50
270.0
 51
360.0
  0
ARC
  5
275
330
238
100
AcDbEntity
 67
     1
  8
0
  6
Continuous
 62
     7
370
    25
100
AcDbCircle
 10
-3.69
 20
0.01
 30
0.0
 40
0.0099999999999955
100
AcDbArc
 50
180.0
 51
270.0
  0
ARC
  5
276
330
238
100
AcDbEntity
 67
     1
  8
0
  6
Continuous
 62
     7
370
    25
100
AcDbCircle
 10
-3.69
 20
1.5254330709
 30
0.0
 40
0.0100000000000025
100
AcDbArc
 50
90.0
 51
180.0
  0
ARC
  5
277
330
238
100
AcDbEntity
 67
     1
  8
0
  6
Continuous
 62
     7
370
    25
100
AcDbCircle
 10
-0.01
 20
1.5254330709
 30
0.0
 40
0.01
100
AcDbArc
 50
0.0
 51
90.0
  0
VIEWPORT
  5
27C
330
238
100
AcDbEntity
 67
     1
  8
0
100
AcDbViewport
 10
0.0
 20
0.0
 30
0.0
 40
8.4
 41
6.4
 68
     1
 69
     1
 12
1.85
 22
1.85
 13
0.0
 23
0.0
 14
0.5
 24
0.5
 15
0.5
 25
0.5
 16
0.0
 26
0.0
 36
1.0
 17
0.0
 27
0.0
 37
0.0
 42
50.0
 43
0.0
 44
0.0
 45
3.774
 50
0.0
 51
0.0
 72
   100
 90
   557152
  1

281
     0
 71
     1
 74
     0
110
0.0
120
0.0
130
0.0
111
1.0
121
0.0
131
0.0
112
0.0
122
1.0
132
0.0
 79
     0
146
0.0
  0
ENDSEC
  0
SECTION
  2
OBJECTS
  0
DICTIONARY
  5
C
330
0
100
AcDbDictionary
281
     1
  3
ACAD_GROUP
350
D
  3
ACAD_LAYOUT
350
1A
  3
ACAD_MLINESTYLE
350
17
  3
ACAD_PLOTSETTINGS
350
19
  3
ACAD_PLOTSTYLENAME
350
E
  3
ACAD_SCALELIST
350
47
  0
DICTIONARY
  5
D
102
{ACAD_REACTORS
330
C
102
}
330
C
100
AcDbDictionary
281
     1
  0
DICTIONARY
  5
1A
102
{ACAD_REACTORS
330
C
102
}
330
C
100
AcDbDictionary
281
     1
  3
_Back
350
239
  3
_Front
350
1E
  3
_Right
350
26
  3
Model
350
22
  0
DICTIONARY
  5
17
102
{ACAD_REACTORS
330
C
102
}
330
C
100
AcDbDictionary
281
     1
  3
Standard
350
18
  0
DICTIONARY
  5
19
102
{ACAD_REACTORS
330
C
102
}
330
C
100
AcDbDictionary
281
     1
  0
ACDBDICTIONARYWDFLT
  5
E
102
{ACAD_REACTORS
330
C
102
}
330
C
100
AcDbDictionary
281
     1
  3
Normal
350
F
100
AcDbDictionaryWithDefault
340
F
  0
DICTIONARY
  5
47
102
{ACAD_REACTORS
330
C
102
}
330
C
100
AcDbDictionary
281
     1
  3
A0
350
48
  3
A1
350
49
  3
A2
350
4A
  3
A3
350
4B
  3
A4
350
4C
  3
A5
350
4D
  3
A6
350
4E
  3
A7
350
4F
  3
A8
350
50
  3
A9
350
51
  3
B0
350
52
  3
B1
350
53
  3
B2
350
54
  3
B3
350
55
  3
B4
350
56
  3
B5
350
57
  3
B6
350
58
  3
B7
350
59
  3
B8
350
5A
  3
B9
350
5B
  3
C0
350
5C
  3
C1
350
5D
  3
C2
350
5E
  3
C3
350
5F
  3
C4
350
60
  3
C5
350
61
  3
C6
350
62
  3
C7
350
63
  3
C8
350
64
  3
C9
350
65
  3
D0
350
66
  3
D1
350
67
  3
D2
350
68
  0
LAYOUT
  5
239
102
{ACAD_REACTORS
330
1A
102
}
330
1A
100
AcDbPlotSettings
  1

  2
none_device
  4
ANSI_A_(11.00_x_8.50_Inches)
  6

 40
6.35
 41
19.05
 42
6.35000508
 43
19.05000254
 44
279.4
 45
215.9
 46
26.47949746
 47
-17.97050127
 48
0.0
 49
0.0
140
0.0
141
0.0
142
2.2743243243
143
1.0
 70
  1696
 72
     0
 73
     0
 74
     1
  7

 75
     0
147
1.8918918649
148
0.0
149
0.0
100
AcDbLayout
  1
_Back
 70
     1
 71
     3
 10
0.0
 20
0.0
 11
0.0
 21
0.0
 12
0.0
 22
0.0
 32
0.0
 14
0.0
 24
0.0
 34
0.0
 15
3.7
 25
3.7
 35
0.0
146
0.0
 13
0.0
 23
0.0
 33
0.0
 16
1.0
 26
0.0
 36
0.0
 17
0.0
 27
1.0
 37
0.0
 76
     0
330
238
331
27C
  0
LAYOUT
  5
1E
102
{ACAD_REACTORS
330
1A
102
}
330
1A
100
AcDbPlotSettings
  1

  2
none_device
  4
Letter_(8.50_x_11.00_Inches)
  6

 40
6.35
 41
6.35
 42
6.35001
 43
6.35001
 44
215.9
 45
279.4
 46
0.0
 47
0.0
 48
0.0
 49
0.0
140
0.0
141
0.0
142
1.0
143
0.3523809656
 70
   688
 72
     0
 73
     1
 74
     1
  7

 75
     0
147
2.8378377314
148
0.0
149
0.0
100
AcDbLayout
  1
_Front
 70
     1
 71
     1
 10
-0.0880953801
 20
-0.0880952414
 11
3.7880952414
 21
2.9071429661
 12
0.0
 22
0.0
 32
0.0
 14
1.0000000000E+20
 24
1.0000000000E+20
 34
1.0000000000E+20
 15
-1.0000000000E+20
 25
-1.0000000000E+20
 35
-1.0000000000E+20
146
0.0
 13
0.0
 23
0.0
 33
0.0
 16
1.0
 26
0.0
 36
0.0
 17
0.0
 27
1.0
 37
0.0
 76
     0
330
1B
331
278
  0
LAYOUT
  5
26
102
{ACAD_REACTORS
330
1A
102
}
330
1A
100
AcDbPlotSettings
  1

  2
none_device
  4
Letter_(8.50_x_11.00_Inches)
  6

 40
6.35
 41
6.35
 42
6.35001
 43
6.35001
 44
215.9
 45
279.4
 46
0.0
 47
0.0
 48
0.0
 49
0.0
140
0.0
141
0.0
142
1.0
143
0.3523809656
 70
   688
 72
     0
 73
     1
 74
     1
  7

 75
     0
147
2.8378377314
148
0.0
149
0.0
100
AcDbLayout
  1
_Right
 70
     1
 71
     2
 10
0.0
 20
0.0
 11
0.0
 21
0.0
 12
0.0
 22
0.0
 32
0.0
 14
0.0
 24
0.0
 34
0.0
 15
0.0
 25
0.0
 35
0.0
146
0.0
 13
0.0
 23
0.0
 33
0.0
 16
1.0
 26
0.0
 36
0.0
 17
0.0
 27
1.0
 37
0.0
 76
     0
330
23
331
27A
  0
LAYOUT
  5
22
102
{ACAD_REACTORS
330
1A
102
}
330
1A
100
AcDbPlotSettings
  1

  2
none_device
  4
Letter_(8.50_x_11.00_Inches)
  6

 40
6.35
 41
6.35
 42
6.35000508
 43
6.35000508
 44
215.9
 45
279.4
 46
0.0
 47
0.0
 48
0.0
 49
0.0
140
0.0
141
0.0
142
1.0
143
1.0
 70
  1712
 72
     0
 73
     0
 74
     0
  7

 75
     0
147
1.0
148
0.0
149
0.0
100
AcDbLayout
  1
Model
 70
     1
 71
     0
 10
0.0
 20
0.0
 11
12.0
 21
9.0
 12
0.0
 22
0.0
 32
0.0
 14
0.0
 24
0.0
 34
0.0
 15
3.7
 25
3.7
 35
0.0
146
0.0
 13
0.0
 23
0.0
 33
0.0
 16
1.0
 26
0.0
 36
0.0
 17
0.0
 27
1.0
 37
0.0
 76
     0
330
1F
331
29
  0
MLINESTYLE
  5
18
102
{ACAD_REACTORS
330
17
102
}
330
17
100
AcDbMlineStyle
  2
Standard
 70
     0
  3

 62
   256
 51
90.0
 52
90.0
 71
     2
 49
0.5
 62
   256
  6
BYLAYER
 49
-0.5
 62
   256
  6
BYLAYER
  0
ACDBPLACEHOLDER
  5
F
102
{ACAD_REACTORS
330
E
102
}
330
E
  0
SCALE
  5
48
102
{ACAD_REACTORS
330
47
102
}
330
47
100
AcDbScale
 70
     0
300
1:1
140
1.0
141
1.0
290
     1
  0
SCALE
  5
49
102
{ACAD_REACTORS
330
47
102
}
330
47
100
AcDbScale
 70
     0
300
1:2
140
1.0
141
2.0
290
     0
  0
SCALE
  5
4A
102
{ACAD_REACTORS
330
47
102
}
330
47
100
AcDbScale
 70
     0
300
1:4
140
1.0
141
4.0
290
     0
  0
SCALE
  5
4B
102
{ACAD_REACTORS
330
47
102
}
330
47
100
AcDbScale
 70
     0
300
1:5
140
1.0
141
5.0
290
     0
  0
SCALE
  5
4C
102
{ACAD_REACTORS
330
47
102
}
330
47
100
AcDbScale
 70
     0
300
1:8
140
1.0
141
8.0
290
     0
  0
SCALE
  5
4D
102
{ACAD_REACTORS
330
47
102
}
330
47
100
AcDbScale
 70
     0
300
1:10
140
1.0
141
10.0
290
     0
  0
SCALE
  5
4E
102
{ACAD_REACTORS
330
47
102
}
330
47
100
AcDbScale
 70
     0
300
1:16
140
1.0
141
16.0
290
     0
  0
SCALE
  5
4F
102
{ACAD_REACTORS
330
47
102
}
330
47
100
AcDbScale
 70
     0
300
1:20
140
1.0
141
20.0
290
     0
  0
SCALE
  5
50
102
{ACAD_REACTORS
330
47
102
}
330
47
100
AcDbScale
 70
     0
300
1:30
140
1.0
141
30.0
290
     0
  0
SCALE
  5
51
102
{ACAD_REACTORS
330
47
102
}
330
47
100
AcDbScale
 70
     0
300
1:40
140
1.0
141
40.0
290
     0
  0
SCALE
  5
52
102
{ACAD_REACTORS
330
47
102
}
330
47
100
AcDbScale
 70
     0
300
1:50
140
1.0
141
50.0
290
     0
  0
SCALE
  5
53
102
{ACAD_REACTORS
330
47
102
}
330
47
100
AcDbScale
 70
     0
300
1:100
140
1.0
141
100.0
290
     0
  0
SCALE
  5
54
102
{ACAD_REACTORS
330
47
102
}
330
47
100
AcDbScale
 70
     0
300
2:1
140
2.0
141
1.0
290
     0
  0
SCALE
  5
55
102
{ACAD_REACTORS
330
47
102
}
330
47
100
AcDbScale
 70
     0
300
4:1
140
4.0
141
1.0
290
     0
  0
SCALE
  5
56
102
{ACAD_REACTORS
330
47
102
}
330
47
100
AcDbScale
 70
     0
300
8:1
140
8.0
141
1.0
290
     0
  0
SCALE
  5
57
102
{ACAD_REACTORS
330
47
102
}
330
47
100
AcDbScale
 70
     0
300
10:1
140
10.0
141
1.0
290
     0
  0
SCALE
  5
58
102
{ACAD_REACTORS
330
47
102
}
330
47
100
AcDbScale
 70
     0
300
100:1
140
100.0
141
1.0
290
     0
  0
SCALE
  5
59
102
{ACAD_REACTORS
330
47
102
}
330
47
100
AcDbScale
 70
     0
300
1/128" = 1'-0"
140
0.0078125
141
12.0
290
     0
  0
SCALE
  5
5A
102
{ACAD_REACTORS
330
47
102
}
330
47
100
AcDbScale
 70
     0
300
1/64" = 1'-0"
140
0.015625
141
12.0
290
     0
  0
SCALE
  5
5B
102
{ACAD_REACTORS
330
47
102
}
330
47
100
AcDbScale
 70
     0
300
1/32" = 1'-0"
140
0.03125
141
12.0
290
     0
  0
SCALE
  5
5C
102
{ACAD_REACTORS
330
47
102
}
330
47
100
AcDbScale
 70
     0
300
1/16" = 1'-0"
140
0.0625
141
12.0
290
     0
  0
SCALE
  5
5D
102
{ACAD_REACTORS
330
47
102
}
330
47
100
AcDbScale
 70
     0
300
3/32" = 1'-0"
140
0.09375
141
12.0
290
     0
  0
SCALE
  5
5E
102
{ACAD_REACTORS
330
47
102
}
330
47
100
AcDbScale
 70
     0
300
1/8" = 1'-0"
140
0.125
141
12.0
290
     0
  0
SCALE
  5
5F
102
{ACAD_REACTORS
330
47
102
}
330
47
100
AcDbScale
 70
     0
300
3/16" = 1'-0"
140
0.1875
141
12.0
290
     0
  0
SCALE
  5
60
102
{ACAD_REACTORS
330
47
102
}
330
47
100
AcDbScale
 70
     0
300
1/4" = 1'-0"
140
0.25
141
12.0
290
     0
  0
SCALE
  5
61
102
{ACAD_REACTORS
330
47
102
}
330
47
100
AcDbScale
 70
     0
300
3/8" = 1'-0"
140
0.375
141
12.0
290
     0
  0
SCALE
  5
62
102
{ACAD_REACTORS
330
47
102
}
330
47
100
AcDbScale
 70
     0
300
1/2" = 1'-0"
140
0.5
141
12.0
290
     0
  0
SCALE
  5
63
102
{ACAD_REACTORS
330
47
102
}
330
47
100
AcDbScale
 70
     0
300
3/4" = 1'-0"
140
0.75
141
12.0
290
     0
  0
SCALE
  5
64
102
{ACAD_REACTORS
330
47
102
}
330
47
100
AcDbScale
 70
     0
300
1" = 1'-0"
140
1.0
141
12.0
290
     0
  0
SCALE
  5
65
102
{ACAD_REACTORS
330
47
102
}
330
47
100
AcDbScale
 70
     0
300
1-1/2" = 1'-0"
140
1.5
141
12.0
290
     0
  0
SCALE
  5
66
102
{ACAD_REACTORS
330
47
102
}
330
47
100
AcDbScale
 70
     0
300
3" = 1'-0"
140
3.0
141
12.0
290
     0
  0
SCALE
  5
67
102
{ACAD_REACTORS
330
47
102
}
330
47
100
AcDbScale
 70
     0
300
6" = 1'-0"
140
6.0
141
12.0
290
     0
  0
SCALE
  5
68
102
{ACAD_REACTORS
330
47
102
}
330
47
100
AcDbScale
 70
     0
300
1'-0" = 1'-0"
140
12.0
141
12.0
290
     0
  0
ENDSEC
  0
EOF
