0
SECTION
2
HEADER
9
$INSUNITS
70
1
9
$ACADVER
1
AC1014
9
$HANDSEED
5
FFFF
0
ENDSEC
0
SECTION
2
TABLES
0
TABLE
2
VPORT
5
8
100
AcDbSymbolTable
0
ENDTAB
0
TABLE
2
LTYPE
5
5
100
AcDbSymbolTable
0
LTYPE
5
14
100
AcDbSymbolTableRecord
100
AcDbLinetypeTableRecord
2
BYBLOCK
70
0
0
LTYPE
5
15
100
AcDbSymbolTableRecord
100
AcDbLinetypeTableRecord
2
BYLAYER
70
0
0
ENDTAB
0
TABLE
2
LAYER
5
2
100
AcDbSymbolTable
70
2
0
LAYER
5
50
100
AcDbSymbolTableRecord
100
AcDbLayerTableRecord
2
0
70
0
6
CONTINUOUS
0
ENDTAB
0
TABLE
2
STYLE
5
3
100
AcDbSymbolTable
70
1
0
STYLE
5
11
100
AcDbSymbolTableRecord
100
AcDbTextStyleTableRecord
2
STANDARD
70
0
0
ENDTAB
0
TABLE
2
VIEW
5
6
100
AcDbSymbolTable
70
0
0
ENDTAB
0
TABLE
2
UCS
5
7
100
AcDbSymbolTable
70
0
0
ENDTAB
0
TABLE
2
APPID
5
9
100
AcDbSymbolTable
70
2
0
APPID
5
12
100
AcDbSymbolTableRecord
100
AcDbRegAppTableRecord
2
ACAD
70
0
0
ENDTAB
0
TABLE
2
DIMSTYLE
5
A
100
AcDbSymbolTable
70
1
0
ENDTAB
0
TABLE
2
BLOCK_RECORD
5
1
100
AcDbSymbolTable
70
1
0
BLOCK_RECORD
5
1F
100
AcDbSymbolTableRecord
100
AcDbBlockTableRecord
2
*MODEL_SPACE
0
BLOCK_RECORD
5
1B
100
AcDbSymbolTableRecord
100
AcDbBlockTableRecord
2
*PAPER_SPACE
0
ENDTAB
0
ENDSEC
0
SECTION
2
BLOCKS
0
BLOCK
5
20
100
AcDbEntity
100
AcDbBlockBegin
2
*MODEL_SPACE
0
ENDBLK
5
21
100
AcDbEntity
100
AcDbBlockEnd
0
BLOCK
5
1C
100
AcDbEntity
100
AcDbBlockBegin
2
*PAPER_SPACE
0
ENDBLK
5
1D
100
AcDbEntity
100
AcDbBlockEnd
0
ENDSEC
0
SECTION
2
ENTITIES
0
LWPOLYLINE
5
100
100
AcDbEntity
8
0
100
AcDbPolyline
90
4
70
1
43
0.0
10
-8.9999999999999982
20
-3
10
-8.9999999999999982
20
3
10
8.9999999999999982
20
3
10
8.9999999999999982
20
-3
0
LWPOLYLINE
5
101
100
AcDbEntity
8
0
100
AcDbPolyline
90
4
70
1
43
0.0
10
-2.9999999999999987
20
-2.4999999999999996
10
8.5
20
-2.5
10
8.5
20
0.75000000000000078
10
-2.9999999999999987
20
0.75000000000000111
0
LINE
5
102
100
AcDbEntity
8
0
100
AcDbLine
10
-7.1499999999999986
20
-2.4999999999999991
30
0
11
-7.6999999999999975
21
-2.4999999999999991
31
0
0
LINE
5
103
100
AcDbEntity
8
0
100
AcDbLine
10
-7.6999999999999975
20
-2.4999999999999991
30
0
11
-7.6999999999999975
21
2
31
0
0
LINE
5
104
100
AcDbEntity
8
0
100
AcDbLine
10
-7.6999999999999975
20
2
30
0
11
-7.1499999999999986
21
2
31
0
0
LINE
5
105
100
AcDbEntity
8
0
100
AcDbLine
10
-7.1499999999999986
20
2
30
0
11
-7.1499999999999986
21
-2.4999999999999991
31
0
0
LINE
5
106
100
AcDbEntity
8
0
100
AcDbLine
10
-7.9499999999999984
20
-2.4999999999999996
30
0
11
-8.5
21
-2.4999999999999996
31
0
0
LINE
5
107
100
AcDbEntity
8
0
100
AcDbLine
10
-8.5
20
-2.4999999999999996
30
0
11
-8.5
21
1.9999999999999998
31
0
0
LINE
5
108
100
AcDbEntity
8
0
100
AcDbLine
10
-8.5
20
1.9999999999999998
30
0
11
-7.9499999999999984
21
1.9999999999999998
31
0
0
LINE
5
109
100
AcDbEntity
8
0
100
AcDbLine
10
-7.9499999999999984
20
1.9999999999999998
30
0
11
-7.9499999999999984
21
-2.4999999999999996
31
0
0
LINE
5
110
100
AcDbEntity
8
0
100
AcDbLine
10
-3.4999999999999987
20
-2.4892655262918275
30
0
11
-3.7999999999999985
21
-2.4892655262918275
31
0
0
LINE
5
111
100
AcDbEntity
8
0
100
AcDbLine
10
-3.7999999999999985
20
-2.4892655262918275
30
0
11
-3.7999999999999985
21
0.26073447370817238
31
0
0
LINE
5
112
100
AcDbEntity
8
0
100
AcDbLine
10
-3.7999999999999985
20
0.26073447370817238
30
0
11
-3.4999999999999987
21
0.26073447370817238
31
0
0
LINE
5
113
100
AcDbEntity
8
0
100
AcDbLine
10
-3.4999999999999987
20
0.26073447370817238
30
0
11
-3.4999999999999987
21
-2.4892655262918275
31
0
0
LWPOLYLINE
5
114
100
AcDbEntity
8
0
100
AcDbPolyline
90
4
70
1
43
0.0
10
-4.3999999999999986
20
-2.4892655262918275
10
-4.0999999999999988
20
-2.4892655262918275
10
-4.0999999999999988
20
0.26073447370817238
10
-4.3999999999999986
20
0.26073447370817221
0
LWPOLYLINE
5
115
100
AcDbEntity
8
0
100
AcDbPolyline
90
4
70
1
43
0.0
10
-4.9999999999999991
20
-2.4892655262918275
10
-4.6999999999999993
20
-2.4892655262918275
10
-4.6999999999999993
20
0.26073447370817238
10
-4.9999999999999991
20
0.26073447370817221
0
LWPOLYLINE
5
116
100
AcDbEntity
8
0
100
AcDbPolyline
90
4
70
1
43
0.0
10
-5.5999999999999996
20
-2.4892655262918275
10
-5.2999999999999998
20
-2.4892655262918275
10
-5.2999999999999998
20
0.26073447370817238
10
-5.5999999999999996
20
0.26073447370817221
0
LWPOLYLINE
5
117
100
AcDbEntity
8
0
100
AcDbPolyline
90
4
70
1
43
0.0
10
-6.2000000000000002
20
-2.4892655262918275
10
-5.8999999999999995
20
-2.4892655262918275
10
-5.8999999999999995
20
0.26073447370817238
10
-6.2000000000000002
20
0.26073447370817221
0
LWPOLYLINE
5
118
100
AcDbEntity
8
0
100
AcDbPolyline
90
4
70
1
43
0.0
10
-6.7999999999999998
20
-2.4892655262918275
10
-6.5
20
-2.4892655262918275
10
-6.5
20
0.26073447370817238
10
-6.7999999999999998
20
0.26073447370817221
0
LWPOLYLINE
5
119
100
AcDbEntity
8
0
100
AcDbPolyline
90
4
70
1
43
0.0
10
-6.7999999999999998
20
0.76073447370817238
10
-3.4999999999999987
20
0.76073447370817238
10
-3.4999999999999987
20
2.5
10
-6.7999999999999998
20
2.5
0
CIRCLE
5
120
100
AcDbEntity
8
0
100
AcDbCircle
10
7.8124999999999991
20
1.8124999999999998
30
0
40
0.68749999999999922
210
0
220
0
230
1
0
CIRCLE
5
121
100
AcDbEntity
8
0
100
AcDbCircle
10
5.8124999999999991
20
1.8124999999999998
30
0
40
0.68749999999999922
210
0
220
0
230
1
0
CIRCLE
5
122
100
AcDbEntity
8
0
100
AcDbCircle
10
3.8124999999999996
20
1.8124999999999998
30
0
40
0.68749999999999922
210
0
220
0
230
1
0
LWPOLYLINE
5
123
100
AcDbEntity
8
0
100
AcDbPolyline
90
4
70
1
43
0.0
10
2.625
20
2.5
10
-2.9999999999999987
20
2.5
10
-2.9999999999999987
20
1.2165537374443722
10
2.625
20
1.2165537374443722
0
LINE
5
124
100
AcDbEntity
8
0
100
AcDbLine
10
-3.4999999999999987
20
0.26073447370817238
30
0
11
-3.7999999999999985
21
0.26073447370817238
31
0
0
LINE
5
125
100
AcDbEntity
8
0
100
AcDbLine
10
-3.7999999999999985
20
0.26073447370817238
30
0
11
-3.7999999999999985
21
-0.73926552629182751
31
0
0
LINE
5
126
100
AcDbEntity
8
0
100
AcDbLine
10
-3.7999999999999985
20
-0.73926552629182751
30
0
11
-3.4999999999999987
21
-0.73926552629182751
31
0
0
LINE
5
127
100
AcDbEntity
8
0
100
AcDbLine
10
-3.4999999999999987
20
-0.73926552629182751
30
0
11
-3.4999999999999987
21
0.26073447370817238
31
0
0
LINE
5
128
100
AcDbEntity
8
0
100
AcDbLine
10
-4.3999999999999986
20
-0.73926552629182751
30
0
11
-4.0999999999999988
21
-0.73926552629182751
31
0
0
LINE
5
129
100
AcDbEntity
8
0
100
AcDbLine
10
-4.0999999999999988
20
-0.73926552629182751
30
0
11
-4.0999999999999988
21
0.26073447370817238
31
0
0
LINE
5
130
100
AcDbEntity
8
0
100
AcDbLine
10
-4.3999999999999986
20
0.26073447370817238
30
0
11
-4.3999999999999986
21
-0.73926552629182751
31
0
0
LINE
5
131
100
AcDbEntity
8
0
100
AcDbLine
10
-4.3999999999999986
20
0.26073447370817238
30
0
11
-4.0999999999999988
21
0.26073447370817238
31
0
0
LINE
5
132
100
AcDbEntity
8
0
100
AcDbLine
10
-4.9999999999999991
20
-0.73926552629182751
30
0
11
-4.6999999999999993
21
-0.73926552629182751
31
0
0
LINE
5
133
100
AcDbEntity
8
0
100
AcDbLine
10
-4.6999999999999993
20
-0.73926552629182751
30
0
11
-4.6999999999999993
21
0.26073447370817238
31
0
0
LINE
5
134
100
AcDbEntity
8
0
100
AcDbLine
10
-4.9999999999999991
20
0.26073447370817238
30
0
11
-4.9999999999999991
21
-0.73926552629182751
31
0
0
LINE
5
135
100
AcDbEntity
8
0
100
AcDbLine
10
-4.9999999999999991
20
0.26073447370817238
30
0
11
-4.6999999999999993
21
0.26073447370817238
31
0
0
LINE
5
136
100
AcDbEntity
8
0
100
AcDbLine
10
-5.5999999999999996
20
-0.73926552629182751
30
0
11
-5.2999999999999998
21
-0.73926552629182751
31
0
0
LINE
5
137
100
AcDbEntity
8
0
100
AcDbLine
10
-5.2999999999999998
20
-0.73926552629182751
30
0
11
-5.2999999999999998
21
0.26073447370817238
31
0
0
LINE
5
138
100
AcDbEntity
8
0
100
AcDbLine
10
-5.5999999999999996
20
0.26073447370817238
30
0
11
-5.5999999999999996
21
-0.73926552629182751
31
0
0
LINE
5
139
100
AcDbEntity
8
0
100
AcDbLine
10
-5.5999999999999996
20
0.26073447370817238
30
0
11
-5.2999999999999998
21
0.26073447370817238
31
0
0
LINE
5
140
100
AcDbEntity
8
0
100
AcDbLine
10
-6.2000000000000002
20
-0.73926552629182751
30
0
11
-5.8999999999999995
21
-0.73926552629182751
31
0
0
LINE
5
141
100
AcDbEntity
8
0
100
AcDbLine
10
-5.8999999999999995
20
-0.73926552629182751
30
0
11
-5.8999999999999995
21
0.26073447370817238
31
0
0
LINE
5
142
100
AcDbEntity
8
0
100
AcDbLine
10
-6.2000000000000002
20
0.26073447370817238
30
0
11
-6.2000000000000002
21
-0.73926552629182751
31
0
0
LINE
5
143
100
AcDbEntity
8
0
100
AcDbLine
10
-6.2000000000000002
20
0.26073447370817238
30
0
11
-5.8999999999999995
21
0.26073447370817238
31
0
0
LINE
5
144
100
AcDbEntity
8
0
100
AcDbLine
10
-6.7999999999999998
20
-0.73926552629182751
30
0
11
-6.5
21
-0.73926552629182751
31
0
0
LINE
5
145
100
AcDbEntity
8
0
100
AcDbLine
10
-6.5
20
-0.73926552629182751
30
0
11
-6.5
21
0.26073447370817238
31
0
0
LINE
5
146
100
AcDbEntity
8
0
100
AcDbLine
10
-6.7999999999999998
20
0.26073447370817238
30
0
11
-6.7999999999999998
21
-0.73926552629182751
31
0
0
LINE
5
147
100
AcDbEntity
8
0
100
AcDbLine
10
-6.7999999999999998
20
0.26073447370817238
30
0
11
-6.5
21
0.26073447370817238
31
0
0
LINE
5
148
100
AcDbEntity
8
0
100
AcDbLine
10
-7.1499999999999986
20
2
30
0
11
-7.6999999999999975
21
2
31
0
0
LINE
5
149
100
AcDbEntity
8
0
100
AcDbLine
10
-7.6999999999999975
20
2
30
0
11
-7.6999999999999975
21
0.5
31
0
0
LINE
5
150
100
AcDbEntity
8
0
100
AcDbLine
10
-7.6999999999999975
20
0.5
30
0
11
-7.1499999999999986
21
0.5
31
0
0
LINE
5
151
100
AcDbEntity
8
0
100
AcDbLine
10
-7.1499999999999986
20
0.5
30
0
11
-7.1499999999999986
21
2
31
0
0
LINE
5
152
100
AcDbEntity
8
0
100
AcDbLine
10
-7.9499999999999984
20
1.9999999999999998
30
0
11
-8.5
21
1.9999999999999998
31
0
0
LINE
5
153
100
AcDbEntity
8
0
100
AcDbLine
10
-8.5
20
1.9999999999999998
30
0
11
-8.5
21
0.13573447370817193
31
0
0
LINE
5
154
100
AcDbEntity
8
0
100
AcDbLine
10
-8.5
20
0.13573447370817193
30
0
11
-7.9499999999999984
21
0.13573447370817193
31
0
0
LINE
5
155
100
AcDbEntity
8
0
100
AcDbLine
10
-7.9499999999999984
20
0.13573447370817193
30
0
11
-7.9499999999999984
21
1.9999999999999998
31
0
0
ENDSEC
0
SECTION
2
OBJECTS
0
DICTIONARY
5
C
100
AcDbDictionary
3
ACAD_GROUP
350
D
3
ACAD_MLINESTYLE
350
17
0
DICTIONARY
5
D
100
AcDbDictionary
0
DICTIONARY
5
1A
330
C
100
AcDbDictionary
0
DICTIONARY
5
17
100
AcDbDictionary
0
ENDSEC
0
EOF
